Archives

Liens commerciaux

amicalement votre

Share Button

Toutes les tablatures sont ici  http://guitarepourdebutant.fr/tablatures-faciles/


Tablature serie tv : AMICALEMENT VOTRE

 

  

e|---5---------------7----------------7---------------7-----------------|
B|---5---------------5----------------8---------------7-----------------|
G|---5---------------5----------------9---------------9-----------------|
D|---7---------------7----------------9---------------9-----------------|
A|---7---------------7----------------7---------------7-----------------|
E|---5---------------5--------------------------------------------------|

e|------------------------------------------------------------|
B|------------------------------------------------------------|
G|------------------------------------------------------------|
D|------------------------------------------------------------|
A|------------------------------------------------------------|
E|--5--0-3-5---5--0-0-0-0-0-3-3h5--0-3-5-5-5--0-0-0-0-0-3-3h5-|

e|-------3s5--3-2--0--------------------------|
B|---0-1-------------0----0---0-1-3s5-5-4-5-7-|
G|-2------------------------2-----------------|
D|--------------------------------------------|
A|--------------------------------------------|
E|--------------------------------------------|

e|-------7--7-8-7-3--3-5-3-2-3-2-0-|
B|---0-1---------------------------|
G|-2-------------------------------|
D|---------------------------------|
A|---------------------------------|
E|---------------------------------|

e|-3-5-3-2-3-2-0----0-2-3-0-|
B|--------------------------|
G|--------------------------|
D|--------------------------|
A|--------------------------|
E|--------------------------|