Archives

Liens commerciaux

Aaron : U-Turn

Share Button

Tablature  Aaron : U-Turn

 Toutes les tablatures sont ici  http://guitarepourdebutant.fr/tablatures-faciles/

Imprimer cette tablature Imprimer cette tablature
E||--0--------------------|--0-------------------|--0-------------------|
B||--1-----1----1----1----|--1----1----1----1----|--0----0----0----0----|
G||--2-----2----2----2----|--2----2----2----2----|--0----0----0----0----|
D||--2-----2----2----2----|--2----2----2----2----|--2----2----2----2----|
A||--0-----0----0----0----|--0----0----0----0----|--2----2----2----2----|
E||-----------------------|----------------------|----------------------|

  --0-------------------|--0-------------------|--0--------------------|
  --0----0----0----0----|--1----1----1----1----|--1-----1----1----1----|
  --0----0----0----0----|--2----2----2----2----|--2-----2----2----2----|
  --2----2----2----2----|--2----2----2----2----|--2-----2----2----2----|
  --2----2----2----2----|--0----0----0----0----|--0-----0----0----0----|
  ----------------------|----------------------|-----------------------|

  --0-------------------|--0-------------------|--1----1----1----1----|
  --0----0----0----0----|--0----0----0----0----|--1----1----1----1----|
  --0----0----0----0----|--0----0----0----0----|--2----2----2----2----|
  --2----2----2----2----|--2----2----2----2----|--3----3----3----3----|
  --2----2----2----2----|--2----2----2----2----|--3----3----3----3----|
  ----------------------|----------------------|--1----1----1----1----|

  --1----1----1----1----|--0-------------------|--0-------------------|
  --1----1----1----1----|--1----1----1----1----|--0----0----0----0----|
  --2----2----2----2----|--2----2----2----2----|--0----0----0----0----|
  --3----3----3----3----|--2----2----2----2----|--2----2----2----2----|
  --3----3----3----3----|--0----0----0----0----|--2----2----2----2----|
  --1----1----1----1----|----------------------|----------------------|

  --1----1----1----1----|--1----1----1----1----|--0-------------------|
  --1----1----1----1----|--1----1----1----1----|--1----1----1----1----|
  --2----2----2----2----|--2----2----2----2----|--2----2----2----2----|
  --3----3----3----3----|--3----3----3----3----|--2----2----2----2----|
  --3----3----3----3----|--3----3----3----3----|--0----0----0----0----|
  --1----1----1----1----|--1----1----1----1----|----------------------|

  --0-------------------|--0-----------------|
  --0----0----0----0----|--0-----------------|
  --0----0----0----0----|--0-----------------|
  --2----2----2----2----|--2-----------------|
  --2----2----2----2----|--2-----------------|
  ----------------------|--------------------|

  --0--------------------|--0-------------------|--0-------------------|
  --1-----1----1----1----|--1----1----1----1----|--0----0----0----0----|
  --2-----2----2----2----|--2----2----2----2----|--0----0----0----0----|
  --2-----2----2----2----|--2----2----2----2----|--2----2----2----2----|
  --0-----0----0----0----|--0----0----0----0----|--2----2----2----2----|
  -----------------------|----------------------|----------------------|

  --0-------------------|--0-------------------|--0--------------------|
  --0----0----0----0----|--1----1----1----1----|--1-----1----1----1----|
  --0----0----0----0----|--2----2----2----2----|--2-----2----2----2----|
  --2----2----2----2----|--2----2----2----2----|--2-----2----2----2----|
  --2----2----2----2----|--0----0----0----0----|--0-----0----0----0----|
  ----------------------|----------------------|-----------------------|

  --0-------------------|--0-------------------|--1----1----1----1----|
  --0----0----0----0----|--0----0----0----0----|--1----1----1----1----|
  --0----0----0----0----|--0----0----0----0----|--2----2----2----2----|
  --2----2----2----2----|--2----2----2----2----|--3----3----3----3----|
  --2----2----2----2----|--2----2----2----2----|--3----3----3----3----|
  ----------------------|----------------------|--1----1----1----1----|

  --1----1----1----1----|--0-------------------|--0-------------------|
  --1----1----1----1----|--1----1----1----1----|--0----0----0----0----|
  --2----2----2----2----|--2----2----2----2----|--0----0----0----0----|
  --3----3----3----3----|--2----2----2----2----|--2----2----2----2----|
  --3----3----3----3----|--0----0----0----0----|--2----2----2----2----|
  --1----1----1----1----|----------------------|----------------------|

  --1----1----1----1----|--1----1----1----1----|--0-------------------|
  --1----1----1----1----|--1----1----1----1----|--1----1----1----1----|
  --2----2----2----2----|--2----2----2----2----|--2----2----2----2----|
  --3----3----3----3----|--3----3----3----3----|--2----2----2----2----|
  --3----3----3----3----|--3----3----3----3----|--0----0----0----0----|
  --1----1----1----1----|--1----1----1----1----|----------------------|

  --0-------------------|--0-----------------|
  --0----0----0----0----|--0-----------------|
  --0----0----0----0----|--0-----------------|
  --2----2----2----2----|--2-----------------|
  --2----2----2----2----|--2-----------------|
  ----------------------|--------------------|    ........