Adele skyfall

Share Button

Adele skyfall

Toutes les tablatures sont ici  http://guitarepourdebutant.fr/tablatures-faciles/

Liens commerciaux

e|-----------------------------------------------------------------------3---|
B|--4-3-1-1------1-3-4-3-3-1-1------3-1-3-1-3-1-4------3-1-3-1-3-3-----------|
G|---------------------------------------------------------------------------|
D|---------------------------------------------------------------------------|
A|---------------------------------------------------------------------------|
E|---------------------------------------------------------------------------|

e|-------------------------------------------------------------------------3-|
B|--1-4-3-1-1------1-1-3-4-3-3-1------1-3-1-3-1-3-4p3p1---1------3-1-3-1-3---|
G|------------------------------------------------------3--------------------|
D|---------------------------------------------------------------------------|
A|---------------------------------------------------------------------------|
E|---------------------------------------------------------------------------|

e|--------3----------4----------8--------------------------------------------|
B|--1-1-1------1-1-1------1-1-1---8-6----6-6-4-6----4-4-6--------------------|
G|---------------------------------------------------------------------------|
D|---------------------------------------------------------------------------|
A|---------------------------------------------------------------------------|
E|---------------------------------------------------------------------------|

e|--------3----------4----------8--------------------------------------------|
B|--1-1-1------1-1-1------1-1-1---8-6----6-6-4-6-4-4-6----4-3-1----4-3-1-----|
G|---------------------------------------------------------------------------|
D|---------------------------------------------------------------------------|
A|---------------------------------------------------------------------------|
E|---------------------------------------------------------------------------|

e|---------------------------------------------------------------------------|
B|--1-1-4-3-1-1------1-3-1-3-1-3-1-4------1-3-1-3-1-3-1-1--------------------|
G|---------------------------------------------------------------------------|
D|---------------------------------------------------------------------------|
A|---------------------------------------------------------------------------|
E|---------------------------------------------------------------------------|

e|----------1-3--------1-3----------3-1-----3---3h6p3------------------------|
B|--1-1-3-4--------1-4-----1----1-1-----4-1----------------------------------|
G|---------------------------------------------------------------------------|
D|---------------------------------------------------------------------------|
A|---------------------------------------------------------------------------|
E|---------------------------------------------------------------------------|

e|--------3----------4----------8--------------------------------------------|
B|--1-1-1------1-1-1------1-1-1---8-6----6-6-4-6----4-4-6--------------------|
G|---------------------------------------------------------------------------|
D|---------------------------------------------------------------------------|
A|---------------------------------------------------------------------------|
E|---------------------------------------------------------------------------|

e|--------3----------4----------8--------------------------------------------|
B|--1-1-1------1-1-1------1-1-1---8-6----6-6-4-6-4-4-6----4-3-1--------------|
G|---------------------------------------------------------------------------|
D|---------------------------------------------------------------------------|
A|---------------------------------------------------------------------------|
E|---------------------------------------------------------------------------|

e|----------------------------3-1-1-1----------------------------------------|
B|--3-3-3-3-1----3-3-3-3-4------------4-1-1----1-1-1-4-3-1-------------------|
G|---------------------------------------------------------0-----------------|
D|---------------------------------------------------------------------------|
A|---------------------------------------------------------------------------|
E|---------------------------------------------------------------------------|

e|----3-1-3------6-1-1-3------3-3-3----3-3-3----3-8-7/8\7----3---------------|
B|--1-------4------------4---------------------------------------------------|
G|---------------------------------------------------------------------------|
D|---------------------------------------------------------------------------|
A|---------------------------------------------------------------------------|
E|---------------------------------------------------------------------------|

e|--------3----------4----------8--------------------------------------------|
B|--1-1-1------1-1-1------1-1-1---8-6----6-6-4-6----4-4-6--------------------|
G|---------------------------------------------------------------------------|
D|---------------------------------------------------------------------------|
A|---------------------------------------------------------------------------|
E|---------------------------------------------------------------------------|

e|--------3----------4----------8--------------------------------------------|
B|--1-1-1------1-1-1------1-1-1---8-6----6-6-4-6-4-4-6----4-3-1--------------|
G|---------------------------------------------------------------------------|
D|---------------------------------------------------------------------------|
A|---------------------------------------------------------------------------|
E|---------------------------------------------------------------------------|

e|--8-6-8-8-6----------8-6-8-8-6-8-6------3-3-3----1h3h4----3h4h6----8-------|
B|------------8----------------------8---------------------------------------|
G|---------------------------------------------------------------------------|
D|---------------------------------------------------------------------------|
A|---------------------------------------------------------------------------|
E|---------------------------------------------------------------------------|

e|--8----6-------6-----------------------------------------------------------|
B|---------8\6/8---8----6----4----3----1-------------------------------------|
G|---------------------------------------------------------------------------|
D|---------------------------------------------------------------------------|
A|---------------------------------------------------------------------------|
E|---------------------------------------------------------------------------|