Archives

Liens commerciaux

Les 14 sujets les plus lus

Avicii – Wake me up

Share Button

Avicii – Wake me up

Toutes les tablatures sont ici  http://guitarepourdebutant.fr/tablatures-faciles/


 

 

e|----------------------------2-------------9--14-13-11-9-11-----------------|
B|--11-9-7-4---11-9-7-4-4-2-4---4---11-9-11------------------11--------------|
G|---------------------------------------------------------------------------|
D|---------------------------------------------------------------------------|
A|---------------------------------------------------------------------------|
E|---------------------------------------------------------------------------|

e|----------------------------2-------------9--14-13-11-9-11-----------------|
B|-------------11-9-7-4-4-2-4---4---11-9-11----------------------------------|
G|---------------------------------------------------------------------------|
D|---------------------------------------------------------------------------|
A|---------------------------------------------------------------------------|
E|---------------------------------------------------------------------------|

e|-----------------------------2-------------9--14-13-11-9-11----------------|
B|--------------11-9-7-4-4-2-4---4---11-9-11------------------11-------------|
G|---------------------------------------------------------------------------|
D|---------------------------------------------------------------------------|
A|---------------------------------------------------------------------------|
E|---------------------------------------------------------------------------|

e|-----------------------------2-------------9--14-13-11-9-11----------------|
B|--------------11-9-7-4-4-2-4---4---11-9-11------------------11-------------|
G|---------------------------------------------------------------------------|
D|---------------------------------------------------------------------------|
A|---------------------------------------------------------------------------|
E|---------------------------------------------------------------------------|