Blues pour débutant

Share Button
rythme blues

Imprimer cette tablature Imprimer cette tablature
E|---------------------|---------------------|---------------------|---------------------|
B|---------------------|---------------------|---------------------|---------------------|
G|---------------------|---------------------|---------------------|---------------------|
D|-2----2----4----4----|-2---------2----2----|-2----2----2----2----|-4----4----2----2----|
A|-0----0----0----0----|-0---------0----3----|-4----0----0----0----|-0----0----0----0----|
E|---------------------|---------------------|---------------------|---------------------|

E|---------------------|---------------------|---------------------|---------------------|
B|---------------------|---------------------|---------------------|---------------------|
G|---------------------|-2----2----4----4----|-2---------2----2----|-2----2----2----2----|
D|-2----2----2----2----|-0----0----0----0----|-0---------0----3----|-4----0----0----0----|
A|-3----4----0----0----|---------------------|---------------------|---------------------|
E|---------------------|---------------------|---------------------|---------------------|

E|---------------------|---------------------|--------|---------------------|---------------------|
B|---------------------|---------------------|--------|---------------------|---------------------|
G|-4----4----2----2----|-2----2----2----2----|--------|---------------------|---------------------|
D|-0----0----0----0----|-3----4----0----0----|--------|---------------------|---------------------|
A|---------------------|---------------------|--------|---------------------|---------------------
E|---------------------|---------------------|--------|---------------------|---------------------|

A faire tourner en boucle ,  c'est un rythme blues donc lentement et des battements irréguliers

Soyez le premier à commenter

Poster un Commentaire

Votre adresse de messagerie ne sera pas publiée.




Time limit is exhausted. Please reload CAPTCHA.