Archives

Liens commerciaux

Claude françois comme d’habitude

Share Button
Imprimer cette tablature Imprimer cette tablature

Toutes les tablatures sont ici  http://guitarepourdebutant.fr/tablatures-faciles/

 Claude françois comme d’habitude 

E|-----------------------------------------------------|
B|-----------------------------------------------------|
G|-----------------------------------------------------|
D|-----9-----------9-7-9---------9-7-9----7-9-7-7------|
A|------------------------------------------------11---|
E|--10------10-10---------10-10------------------------|

E|------------------------------------------|
B|------------------------------------------|
G|------------------------------------------|
D|-----10-----------10-9-10-------10-9-10---|
A|--7---------7-7-------------7-------------|
E|------------------------------------------|

E|------------------------------------------------|
B|------------------------------------------------|
G|---7------------------7-----7-9-7-----9---7-----|
D|-----7-7--10-9----11------11------------9---10--|
A|------------------------------------------------|
E|------------------------------------------------|

E|----------------------------------------|
B|----------------------------------------|
G|----------7-----------------------------|
D|--10-10-9--10------10-9-------10-9-7----|
A|----------------------------------------|
E|--------------------------10------------|

E|-----------------------------|
B|-----------------------------|
G|-----------------------------|        
D|--------7-7------------------|        
A|---9-10---------10-----------|
E|-----------------------------|

E|----------------------------------------|
B|----------------------------------------|
G|-----------7-7----9-7----7------7--9-9--|
D|---9-9-10-------------11------11--------|
A|----------------------------------------|
E|----------------------------------------|

E|--------------------------------------------------|
B|------------------7-8-8-----8--7-----7-7-8-10-10--|
G|---7-9-7-9----9-9----------9-9--------------------|
D|--------------------------------------------------|
A|--------------------------------------------------|
E|--------------------------------------------------|

E|--------------------------------------------------------|
B|----7-10-7-8--------7-8-8-----8--7----7-7-8-10-10--8----|
G|----------------9-9----------9-9------------------------|
D|--------------------------------------------------------|
A|--------------------------------------------------------|
E|--------------------------------------------------------|