Archives

Liens commerciaux

Les 14 sujets les plus lus

E King Ben : Stand By Me

Share Button

Toutes les tablatures sont ici  http://guitarepourdebutant.fr/tablatures-faciles/

 

Imprimer cette tablature Imprimer cette tablature
e-----------------------------------------------------------------------------
B-----------------------------------------------------------------------------
G-----------------------------------------------------------------------------
D-----------------------------------------------------------------------------
A-5-5--0-4-5-5---0-4-5-5---5-4-2-2--0-2-2--2-0--------2-0-0--0-4-5-5---0-4-5-5
E----------------------------------------------3-3--3-------------------------

e-----------------------------------------------------------------------------
B-----------------------------------------------------------------------------
G-----------------------------------------------------------------------------
D-----------------------------------------------------------------------------
A-0-4-5-5---0-4-5-5---5-4-2-2--0-2-2--2-0--------2-0-0--0-4-5-5---0-4-5-5-----
E-----------------------------------------3-3--3------------------------------

e-----------------------------------------------------------------------------
B-----------------------------------------------------------------------------
G-----------------------------------------------------------------------------
D-----------------------------------------------------------------------------
A-2-6-7-7--2-6-7-7--7-6-4-4--2-4-4--4-2--0-0--0-4-2-2--2-6-7-7---2-6-7-7------
E-----------------------------------------------------------------------------