Edward Sharpe And The Magnetic Zeros : Home ( pub peugeot 2008 )

Share Button

Toutes les tablatures sont ici  http://guitarepourdebutant.fr/tablatures-faciles/

Edward Sharpe And The Magnetic Zeros : Home


 

e|---------------------------------------------------------------|
B|---------------------------------------------------------------|
G|-------------------------------------2-------------------------|
D|----0--0--0--0---7--7--7--7----4--4-4-4------------------------|
A|---2--2--2--2---5--5--5--5----5--5-5------2--2--2--2-----------|
E|-----------------------------------------3--3--3--3------------|

e|---------------------------------------------------------------|
B|---------------------------------------------------------------|
G|-------------------------------------2-------------------------|
D|----0--0--0--0---7--7--7--7----4--4-4-4------------------------|
A|---2--2--2--2---5--5--5--5----5--5-5------2--2--2--2-----------|
E|-----------------------------------------3--3--3--3------------|

e|---------------------------------------------------------------|
B|---------------------------------------------------------------|
G|-------------------------------------2-------------------------|
D|----0--0--0--0---7--7--7--7----4--4-4-4------------------------|
A|---2--2--2--2---5--5--5--5----5--5-5------2--2--2--2-----------|
E|-----------------------------------------3--3--3--3------------|

e|---------------------------------------------------------------|
B|---------------------------------------------------------------|
G|---12--11--9---------------------------------------------------|
D|-------------9--12-12-12-11~-----------------------------------|
A|---------------------------------------------------------------|
E|---------------------------------------------------------------|

e|---------------------------------------------------------------|
B|---------------------------------------------------------------|
G|---12--11--9---------------------------------------------------|
D|-------------9-12-12-14-11------------12-12-14-11--12----------|
A|-----------------------------12~--10---------------------------|
E|---------------------------------------------------------------|

e|---------------------------------------------------------------|
B|---------------------------------------------------------------|
G|--12-----------------------------------------------------------|
D|-----12---11---------------------------------------------------|
A|-------------12---14--12--10-9-10~-----------------------------|
E|---------------------------------------------------------------|

e|---------------------------------------------------------------|
B|---------------------------------------------------------------|
G|---12-11-----12-11---------------------------------------------|
D|---------12--------12------------------------------------------|
A|---------------------------------------------------------------|
E|---------------------------------------------------------------|

e|---------------------------------------------------------------|
B|---------------------------------------------------------------|
G|---------------------------------------------------------------|
D|---------------------------------------------------------------|
A|----0-2-4------------------------------------------------------|
E|---------------------------------------------------------------|

e|---------------------------------------------------------------|
B|---------------------------------------------------------------|
G|-------------------------------------2-------------------------|
D|----0--0--0--0---7--7--7--7----4--4-4-4------------------------|
A|---2--2--2--2---5--5--5--5----5--5-5------2--2--2--2-----------|
E|-----------------------------------------3--3--3--3------------|

e|---------------------------------------------------------------|
B|---------------------------------------------------------------|
G|-------------------------------------2-------------------------|
D|----0--0--0--0---7--7--7--7----4--4-4-4------------------------|
A|---2--2--2--2---5--5--5--5----5--5-5------2--2--2--2-----------|
E|-----------------------------------------3--3--3--3------------|

e|---------------------------------------------------------------|
B|---------------------------------------------------------------|
G|-------------------------------------2-------------------------|
D|----0--0--0--0---7--7--7--7----4--4-4-4------------------------|
A|---2--2--2--2---5--5--5--5----5--5-5------2--2--2--2-----------|
E|-----------------------------------------3--3--3--3------------|

e|---------------------------------------------------------------|
B|---------------------------------------------------------------|
G|---12--11--9---------------------------------------------------|
D|-------------9--12-12-12-11~-----------------------------------|
A|---------------------------------------------------------------|
E|---------------------------------------------------------------|

e|---------------------------------------------------------------|
B|---------------------------------------------------------------|
G|---12--11--9---------------------------------------------------|
D|-------------9-12-12-14-11------------12-12-14-11--12----------|
A|-----------------------------12~--10---------------------------|
E|---------------------------------------------------------------|

e|---------------------------------------------------------------|
B|---------------------------------------------------------------|
G|--12-----------------------------------------------------------|
D|-----12---11---------------------------------------------------|
A|-------------12---14--12--10-9-10~-----------------------------|
E|---------------------------------------------------------------|

e|---------------------------------------------------------------|
B|---------------------------------------------------------------|
G|---12-11-----12-11---------------------------------------------|
D|---------12--------12------------------------------------------|
A|---------------------------------------------------------------|
E|---------------------------------------------------------------|

e|---------------------------------------------------------------|
B|---------------------------------------------------------------|
G|---------------------------------------------------------------|
D|---------------------------------------------------------------|
A|----0-2-4------------------------------------------------------|
E|---------------------------------------------------------------|

e|---------------------------------------------------------------|
B|---------------------------------------------------------------|
G|-------------------------------------2-------------------------|
D|----0--0--0--0---7--7--7--7----4--4-4-4------------------------|
A|---2--2--2--2---5--5--5--5----5--5-5------2--2--2--2-----------|
E|-----------------------------------------3--3--3--3------------|

e|---------------------------------------------------------------|
B|---------------------------------------------------------------|
G|-------------------------------------2-------------------------|
D|----0--0--0--0---7--7--7--7----4--4-4-4------------------------|
A|---2--2--2--2---5--5--5--5----5--5-5------2--2--2--2-----------|
E|-----------------------------------------3--3--3--3------------|

Soyez le premier à commenter

Poster un Commentaire

Votre adresse de messagerie ne sera pas publiée.




Time limit is exhausted. Please reload CAPTCHA.