Archives

Liens commerciaux

Les 14 sujets les plus lus

Fats Domino I’m ready

Share Button

Fats Domino – I’m ready

Toutes les tablatures sont ici  http://guitarepourdebutant.fr/tablatures-faciles/

Imprimer cette tablature Imprimer cette tablature
E----0-5-3--0-5-33----|
B---------------------|
G---5------5----------|   x2
D---------------------|
A---------------------|
E---------------------|

E----5-10-8----5-10-88-|
B---6---------6--------|
G----------------------|
D----------------------|
A----------------------|
E----------------------|

E----0-5-3--0-5-33-|
B------------------|
G---5------5-------|
D------------------|
A------------------|
E------------------|

E-----------------------|
B-----5-33-5-3----------|
G----4--------5-3-------|
D---5------------5-3-2--|
A---------------------3-|
E-----------------------|