Archives

Liens commerciaux

Les 14 sujets les plus lus

Françoise Hardy – Tous Les Garçons Et Les Filles

Share Button

Françoise Hardy – Tous Les Garçons Et Les Filles

 

Toutes les tablatures sont ici  http://guitarepourdebutant.fr/tablatures-faciles/

 

 

e |0--5--9--12--9--10--14--12--9--5--5--5--5----5--9--7--5--7--------
B |------------------------------------------------------------------
G |------------------------------------------------------------------
D |------------------------------------------------------------------
A |------------------------------------------------------------------
E |------------------------------------------------------------------

E |-------0-----2-0--------------------------------------------------
B |-----2---2-3-----2------------2-0---0-----------------------------
G |---2---------------2-2-2-2--2-----2-------------------------------
D |-2----------------------------------------------------------------
A |------------------------------------------------------------------
E |------------------------------------------------------------------