Archives

Liens commerciaux

Gamme pentatonique en mi majeur ( exercice )

Share Button


gamme pentatonique en mi majeur ( exercice ) 

A jouer dans un sens puis dans l'autre , à différente vitesse 

Toutes les tablatures sont ici  http://guitarepourdebutant.fr/tablatures-faciles/

E||--------------------------|--------------------------|
B||--------------------------|--------------------------|
G||--------------------------|--------------11----13----|
D||--------------------------|--11----14----------------|
A||--------------11----14----|--------------------------|
E||--12----14----------------|--------------------------|

 

--------------12----------|--------------------------|
--12----14----------14----|--12----------------------|
--------------------------|--------13----11----------|
--------------------------|--------------------14----|
--------------------------|--------------------------|
--------------------------|--------------------------|

 

--------------------------|--------||
--------------------------|--------||
--------------------------|--------||
--11----------------------|--------||
--------14----11----------|--------||
--------------------14----|--12----||