Georges Brassens : Chanson pour l’auvergnat

Share Button


Georges Brassens : Chanson pour l'auvergnat

Imprimer cette tablature Imprimer cette tablature
-------------------------------------------------------------0-1-0---
-----0-1-------0--------0-1---0-1------0-1-------0-1---0-1-3---------
-2-2-----2-1-2------1-2-----2--------2-----2-1-2-----2---------------
------------------2----------------2---------------------------------
---------------------------------------------------------------------
--------------------------------------------------------------------- 

2/
-0-1-3-5------0-1-3-------0-1---------0------------------------------
------------3---------1-3-------0-1-3--------------------------------
---------------------------------------------------------------------
---------------------------------------------------------------------
---------------------------------------------------------------------
---------------------------------------------------------------------

3/
-----0-1---------0-5-5-5-5-3-1-0-1-0---------------------------------
---1-----3-1---1---------------------3-1-0---------------------------
-2-----------2-------------------------------------------------------
---------------------------------------------------------------------
---------------------------------------------------------------------
---------------------------------------------------------------------

4/
---------------------------------------------------------------------
-----0-1-------0---------0-1---0-1-------0-1---3-1-0-1-0-------------
-2-2-----2-1-2-------1-2-----2---------2-----2-----------2-1-2-2-----
-------------------2-----------------2-------------------------------
---------------------------------------------------------------------
---------------------------------------------------------------------

Toutes les tablatures sont ici  http://guitarepourdebutant.fr/tablatures-faciles/

La tablature : les copains d’abord de Brassens est ici —-> Tablature Brassens 

Soyez le premier à commenter

Poster un Commentaire

Votre adresse de messagerie ne sera pas publiée.




Time limit is exhausted. Please reload CAPTCHA.