Archives

Liens commerciaux

Les 14 sujets les plus lus

Georges Brassens Le pornographe

Share Button

 Toutes les tablatures sont ici  http://guitarepourdebutant.fr/tablatures-faciles/

 

1. Intro
e--------5-------------------------------5------------
b------5---8---5-8-7-----6-5-----------5---8---5-8-7--
g----5-----------------7-----7-5-4---5----------------
d--7-------------------------------7------------------
a-----------------------------------------------------
e-----------------------------------------------------

e----------------
b---6-5----------
g-7-----7-5-4----
d-------------7--
a----------------
e----------------
2. Couplet 
e--------------------------------------------------0--
b----1---1---1---1---0---0---3---3---1---1---1---1-3--
g----2---2---2---2---2---2---1---1---0---0---0---0-1--
d----2---2---2---2---1---1---2---2---2---2---2---2-2--
a--0-------0-------2-------2-------3-------3-------2--
e------0-------0-------0-------0-------3-------3---0--

e--------------------------------------------------0--
b----1---1---1---1---0---0---3---3---1---1---1---1-3--
g----2---2---2---2---2---2---1---1---0---0---0---0-1--
d----2---2---2---2---1---1---2---2---2---2---2---2-2--
a--0-------0-------2-------2-------3-------3-------2--
e------0-------0-------0-------0-------3-------3---0--

e------------
b-1-1--1--1--
g-2-2--2--2--
d-2-2--2--2--
a-0-0--0--0--
e------------

 Refrain
e----1---1---------------------------1-------------0---0--
b----3---3---1---1---0---3---1---1---3---3---1---1-3---1--
g----2---2---2---2---2---1---2---2---2---4---0---0-1---2--
d--0---------2---2---1---2---2---2-0-----3---2---2-2---2--
a------0---0-------2-------0---------------3-------2---0--
e--------------0-------0-------0-------3-----------0------