Archives

Liens commerciaux

Georges Brassens : LES COPAINS D ABORD

Share Button

 

Toutes les tablatures sont ici  http://guitarepourdebutant.fr/tablatures-faciles/

 Georges Brassens : LES COPAINS D ABORD
Imprimer cette tablature Imprimer cette tablature


e-----------------------------------------------10---12--13--12---
b-------------10--------------10-------------10-------------------
g-10--12--13------12--10--12--------12-10-12----------------------
d-----------------------------------------------------------------
a-----------------------------------------------------------------
e-----------------------------------------------------------------

e-10-----------------------------------------------------
b----13--10------------------------10--------------------
g------------12--12--12------12-10-----12--10------------
d------------------------12--------------------9---------
a--------------------------------------------------------
e--------------------------------------------------------

e--------------------------------------------------------------
b--------------------------------------------10--10--9---------
g----------9--10----10-9-10------10-9-------------------12-----
d--11--12-------------------12--------12-11--------------------
a--------------------------------------------------------------
e--------------------------------------------------------------

e-----------------------------------------------
b--11-10------------------------10--------------
g---------12-10--10--10------------12----9-10---
d------------------------12---9-------12--------
a-----------------------------------------------
e-----------------------------------------------