Archives

Liens commerciaux

Guy beart : L’eau vive

Share Button
Imprimer cette tablature Imprimer cette tablature

Toutes les tablatures sont ici  http://guitarepourdebutant.fr/tablatures-faciles/


 Tablature Guy beart : L'eau vive
-----------------------------
0--0--0---------0--1--0------
--0--0--0--2--2-----2--0--2--
-----------------------------
-----------------------------
-----------------------------

-----------------------------
0--0--0---------0--1--0------
--0--0--0--2--2-----2--0--0--
-----------------------------
-----------------------------
-----------------------------

--0------------------------------------------------
3--3--1--1--1--0--0----------0--1--0---------------
-----------2----0--2---0--2---------2--0--2--0--0--
-----------------------------------------------4---
---------------------------------------------------
---------------------------------------------------