Archives

Les 14 sujets les plus lus

Liens commerciaux

Hugues Aufray céline

Share Button

 

 

E|---------|-------------|-------------|-------------|-------------------|-----------------|
B|---------|---------1-3-|---------1-3-|-3-3-1-1---1-|-1-1-------1-3-1---|---------1-------|
G|---0-2-3-|---0-2-3-----|---0-2-3-----|---------3---|-----3-2-3-------3-|-2-0-2-2---3-2-0-|
D|-0-------|-0-----------|-0-----------|-------------|-------------------|-----------------|
A|---------|-------------|-------------|-------------|-------------------|-----------------|
E|---------|-------------|-------------|-------------|-------------------|-----------------|

Hugues Aufray : céline
Tablature facile pour débutant . 
E|-------|-------------------|-------------------|-------------------|-------------------|
B|-------|-1-1-3-1-------1---|-----------1-------|-1-1-3-1-------1---|-------------------|
G|-0-2-3-|---------2-3-3---3-|-3-0-3-0-3---3-2-3-|---------2-3-3---3-|-2-2-2-0---2-0-0-0-|
D|-------|-------------------|-------------------|-------------------|---------3---------|
A|-------|-------------------|-------------------|-------------------|-------------------|
E|-------|-------------------|-------------------|-------------------|-------------------|

E|-------------------|
B|-------------------|
G|-2-2-2-0---2-0-0-0-|
D|---------3---------|
A|-------------------|
E|-------------------|