Archives

Liens commerciaux

Les 14 sujets les plus lus

Indochine J’ai demandé à la lune

Share Button

Indochine : J’ai demandé à la lune

Imprimer cette tablature Imprimer cette tablature


Toutes les tablatures sont ici  http://guitarepourdebutant.fr/tablatures-faciles/

 

E:-------------------------
B:-------------------------
G:-------------------------
D:-7-----9-----4-----4----- 2 fois
A:----7-----7/----4-----4--
E:-------------------------

Riff2:
E:-------------------------------------------------------
B:-------------------------------------------------------
G:-------------------------------------------------------
D:-9-----9-----7-----7-----11------11------9------9------
A:----9-----9-----9-----9------11------11-----11-----11--
E:-------------------------------------------------------