Archives

Liens commerciaux

Les 14 sujets les plus lus

Indochine : L’aventurier

Share Button


Imprimer cette tablature Imprimer cette tablature
|-----------------------------------------------------------------------|
|-----------------------------------------------------------------------|
|---------0-----------------0-------------------------------------------|
|-----0-2---2-0---------0-2---2--------0-2-0-2--------------------------|
|---0-----------3-0---3-------------------------------------------------|
|-----------------------------------------------------------------------|

|-------0-3-0-----------0-3-0----0--0-----------------------------------|
|-----3-------3-1---1-3--------3---3------------------------------------|
|---2-------------2-----------------------------------------------------|
|-----------------------------------------------------------------------|
|-----------------------------------------------------------------------|
|-----------------------------------------------------------------------|

Toutes les tablatures sont ici  http://guitarepourdebutant.fr/tablatures-faciles/