Archives

Liens commerciaux

Les 14 sujets les plus lus

Jason Mraz : I’m Yours

Share Button
Imprimer cette tablature Imprimer cette tablature

Toutes les tablatures sont ici  http://guitarepourdebutant.fr/tablatures-faciles/


Jason Mraz  : I'm Yours
1er  riff
 
E--7-9----7----7-9----6----7-9----4--4-----------0----
B--7-9----7----7-9----7----7-9----4--4h5----4----0----
G-----------------------------------------------------
D-----------------------------------------------------
A-----------------------------------------------------
E-----------------------------------------------------

Riff2

--7s9----7----7s9--6----7s9----4---4----4------
--7s9----7----7s9--7----7s9----4---4----4h5----
-----------------------------------------------
-----------------------------------------------
-----------------------------------------------
-----------------------------------------------