Archives

Liens commerciaux

Jean Jacques Goldman , Comme toi

Share Button

 

Toutes les tablatures sont ici  http://guitarepourdebutant.fr/tablatures-faciles/


Goldman Comme toi
|----------1--0------------------1-----------------3------------|
|-------3--------3------------3-------3---------3-------3-------|
|----2---------------------2-----------------0-------------0----|
|-0---------------------0-----------------5---------------------|
|---------------------------------------------------------------|
|---------------------------------------------------------------|

|----------3-------------------0-----------------------0--1--0--|
|-------3-------3-----------3-----3-----3-----------2-----------|
|----0-------------0-----2-----------2-----2-----2--------------|
|-5-------------------------------------------------------------|
|---------------------0-----------------------0-----------------|
|---------------------------------------------------------------|

       Dm
|----------------1--------0--------------1----------------------|
|-3--2--------3-----3--------3--------3-------------------------|
|----------2-----------2-----------2-----------2-----2----------|
|-------0-----------------------0-----------0-----0-------------|
|---------------------------------------------------------------|
|---------------------------------------------------------------|