Jean-Jacques GOLDMAN – ELLE ATTEND

Share Button

Jean-Jacques GOLDMAN – ELLE ATTEND

 

 

Toutes les tablatures sont ici  http://guitarepourdebutant.fr/tablatures-faciles/

Capo case 2

Intro :

E------0-----0-----0-2-3-2-0-------0-----0-----0-2-0---0-------------------
B----1-----------0-----------3---1-----------0-------0---------------------
G--0-------2-------------------0-------2------------------2-----------------
D--------0-----2---------------------0-----2-------------------------------
A--------------------------------------------------------------------------
E--------------------------------------------------------------------------

Couplet :

E------------0------------0-------------0-2-0---0----
B----------1---1------------3---------0-------0------
G--------0--------------2-------------------------2--  (2 fois)
D---------------------0-------------2----------------
A----------------------------------------------------
E----------------------------------------------------

E------------0------------0-------------0-2-0-----3-----2-0
B----------1---1------------3---------0-------0------------
G--------0--------------2----------------------------------
D---------------------0-------------2----------------------
A----------------------------------------------------------
E----------------------------------------------------------

E-----0-------0---------------0---------------0----------0------0-2-0---0---
B---1---1-------3-----------3---3---3-------3----------3------0-------0-----
G-0---------2-------------0-------0---0---0----------2--------------------2-
D---------0----------------------------------------0--------2---------------
A-----------------------3---------------3-----------------------------------
E---------------------------------------------------------------------------