Jean Louis Aubert : Maintenant Je Reviens

Share Button
Imprimer cette tablature Imprimer cette tablature
Maintenant Je Reviens : Jean Louis Aubert 

      ^  ^  ^  ^ v ^  ^  ^  ^     ^  ^  ^  ^ v ^  ^  ^  ^        ^  ^  ^  ^  ^  ^  ^  ^   

E||--0--0--0--0-0-0--0--0--0--|--1--1--1--1-1-1--1--1--1---||---0--0--0--0--0--0--0--0--|
B||--1--1--1--1-1-1--1--1--1--|--3--3--3--3-3-0--0--0--0---||---0--0--0--0--0--0--0--0--|
G||*-0--0--0--0-0-2--2--2--2--|--2--2--2--2-2-0--0--0--0--*||*--0--0--0--0--0--0--0--0--|
D||*-2--2--2--2-2-2--2--2--2--|--0--0--0--0-0-0--0--0--0--*||*--2--2--2--2--2--2--2--2--|
A||--3--3--3--3-3-0--0--0--0--|--0--0--0--0-0-2--2--2--2---||---2--2--2--2--2--2--2--2--|
E||---------------------------|---------------3--3--3--3---||---0--0--0--0--0--0--0--0--|

  ^  ^  ^  ^  ^  ^  ^  ^ v    ^  ^  ^  ^  ^  ^  ^  ^     ^  ^  ^  ^  ^  ^  ^  ^ v

--0--0--0--0--0--0--0--0-0-|--1--1--1--1--1--1--1--1--|--1--1--1--1--1--1--1--1-1--||
--1--1--1--1--1--1--1--1-1-|--3--3--3--3--3--3--3--3--|--0--0--0--0--0--0--0--0-0--||
--2--2--2--2--2--2--2--2-2-|--2--2--2--2--2--2--2--2--|--0--0--0--0--0--0--0--0-0-*||
--2--2--2--2--2--2--2--2-2-|--0--0--0--0--0--0--0--0--|--0--0--0--0--0--0--0--0-0-*||
--0--0--0--0--0--0--0--0-0-|--0--0--0--0--0--0--0--0--|--2--2--2--2--2--2--2--2-2--||
---------------------------|--------------------------|--3--3--3--3--3--3--3--3-3--||
^ : Vers le haut
v : Vers le bas

Toutes les tablatures sont ici  http://guitarepourdebutant.fr/tablatures-faciles/

Soyez le premier à commenter

Poster un Commentaire

Votre adresse de messagerie ne sera pas publiée.




Time limit is exhausted. Please reload CAPTCHA.