Archives

Liens commerciaux

Jeremiah Isaacson – Thursday Mornings

Share Button

Thursday Mornings

Jeremiah Isaacson

Toutes les tablatures sont ici  http://guitarepourdebutant.fr/tablatures-faciles/

 

 :.:Intro:.:
 e|-----------------------------------------------------------------------------|
 B|-----------------------------------------------------------------------------|
 G|------0-----0---------0----0-------------------------------------------------|
 D|----0-----0---0-----0----0---0----------------0---0---0---0------------------|
 A|--2-----3-------3-2----0--------------------5---5---5---5--------------------|
 E|-----------------------------------------------------------------------------|

 e|-----------------------------------------------------------------------------|
 B|---------------------------------x--------x----------------------------------|
 G|------0-----0---------0----0-----x--------x----------------------------------|
 D|----0-----0---0-----0----0---0---x-Repete-x----------------------------------|
 A|--2-----3-------3-2----0---------x-Intro--x----------------------------------|
 E|---------------------------------x--------x----------------------------------|