Archives

Liens commerciaux

Les 14 sujets les plus lus

Laurent Voulzy – Belle ile en mer

Share Button

LAURENT VOULZY – BELLE ILE EN MER

Toutes les tablatures sont ici  http://guitarepourdebutant.fr/tablatures-faciles/

 


Intro

E||---------------|-------------|----------||--------------|--------------|
B||-----0h1--0h1--|--0----------|----------||--------------|--------------|
G||-----0----0----|--0----------|----------||.-------0-----|--------0-----|
D||-----0h2--0h2--|--0----------|----------||.----0-----0--|-----0-----0--|
A||---------------|-------------|----------||--------------|--------------|
E||--3------------|-----3--3----|----------||--3-----------|--3-----------|

--------------|--------------|--------------|--------------|--------------|
-----------1--|-----------1--|-----------3--|-----------3--|--------------|
--------0-----|--------0-----|--------2-----|--------2-----|-----------2--|
-----2--------|-----2--------|-----0--------|-----0--------|--------0-----|
--3-----------|--3-----------|--2-----------|--2-----------|-----2--------|
--------------|--------------|--------------|--------------|--0-----------|

--------------|--------------|--------------|--------------|--------------|
--------------|-----------1--|--------3-----|-----------3--|--------------|
-----------2--|--------2-----|-----2-----2--|--------0-----|-----------2--|
--------0-----|-----2--------|--0-----------|-----0--------|--------0-----|
-----2--------|--0-----------|--------------|--2-----------|-----2--------|
--4-----------|--------------|--------------|--------------|--0-----------|

--------------|--------------||--------------|--------------|--------------|
-----------1--|--------3-----||--------0-----|--------0-----|--3-----1-----|
--------2-----|-----2-----2--||--------0-----|--------0-----|--0-----0-----|
-----2--------|--0-----------||-----0-----0--|-----0-----0--|-----2-----2--|
--0-----------|--------------||--------------|--------------|--------------|
--------------|--------------||--3-----------|--1-----------|--0-----------|

--------------|--------------|--------------|--------------|--------------|
--1-----0-----|--3-----1-----|--1-----0-----|--3-----1-----|--1-----0-----|
--0-----0-----|--0-----0-----|--0-----0-----|--0-----0-----|--0-----0-----|
-----0-----0--|-----2-----2--|-----0-----0--|-----2-----2--|-----0-----0--|
--------------|--------------|--------------|--------------|--------------|
--------------|--0-----------|--------------|--0-----------|--------------|

--------------|--------------|--------------|--------------|--------------|
--3-----1-----|--1-----0-----|--3-----1-----|--1-----0-----|--3-----1-----|
--0-----0-----|--0-----0-----|--0-----0-----|--0-----0-----|--0-----0-----|
-----2-----2--|-----0-----0--|-----2-----2--|-----0-----0--|-----2-----2--|
--------------|--------------|--------------|--------------|--------------|
--0-----------|--------------|--0-----------|--------------|--0-----------|

--------------|--------------|--------------|--------------|--------------|
--1-----0-----|--3-----1-----|--1-----0-----|--------1-----|--------------|
--0-----0-----|--0-----0-----|--0-----0-----|--------0-----|--------2-----|
-----0-----0--|-----2-----2--|-----0-----0--|-----2-----2--|-----2-----2--|
--------------|--------------|--------------|--3-----------|--0-----------|
--------------|--0-----------|--------------|--------------|--------------|

--------------|--------------|--------------|--------------|--------------|
--1-----1-----|--------3-----|--------1-----|--------------|--------1-----|
--0-----0-----|--------0-----|--------0-----|--------2-----|-----2-----2--|
-----2-----3--|-----0-----0--|-----2-----2--|-----2-----2--|--3-----------|
--------------|--2-----------|--3-----------|--0-----------|--------------|
--------------|--------------|--------------|--------------|--------------|

--------------|--------------|--------------|--------2-----|
--------3-----|--------------|--------------|--------3-----|
--------0-----|--------2-----|--------2-----|-----2-----2--|
-----0-----0--|-----2-----2--|-----2-----2--|--0-----------|
--2-----------|--0-----------|--0-----------|--------------|
--------------|--------------|--------------|--------------|

--2h3----3p2----|--0-----------|---------------||
--3------3------|--1-----1-----|--------1------||
------2------2--|--0--0-----0--|--------0-----.||
----------------|--------------|-----2-----2--.||
----------------|--3-----------|--3------------||
----------------|--------------|---------------||

--------------|--------------|--0-----0-----|--------------|--3----------||
--1-----1-----|--3-----3-----|--------------|--1-----1-----|--0----------||
--0-----0-----|--2-----2-----|--2-----2-----|--0-----0-----|--0----------||
-----2-----2--|-----0-----0--|-----0-----0--|-----2-----2--|--0----------||
--3-----3-----|--2-----2-----|--2-----2-----|--3-----3-----|--2----------||
--------------|--------------|--------------|--------------|--3----------||