Archives

Liens commerciaux

Les 14 sujets les plus lus

LOS LOBOS : La bamba

Share Button

 

Toutes les tablatures sont ici  http://guitarepourdebutant.fr/tablatures-faciles/

lOS lOBOS : La bamba

 

E|------------------|-----------------|----------|----------------|
B|------------------|-----------------|----------|----------------|
G|---------------2-0|-----------------|-------2-0|----------------|
D|---------2-0-3----|-----0-3-3-2-0---|-2-0-3----|-----0-3-3-2-0--|
A|---0-2-3----------|---2------------3|----------|---2-----------3|
E|-3----------------|-3---------------|----------|-3--------------|

E|-1-1-1-1-1-0--|-1-1-1-1-1-0--|--------|-----1-0---0--|-1-1-1-1-1-0--|--------|-----1-0---0--|
B|-------------1|-------------1|-1-1-1-3|-0-3-----3---1|-------------1|-1-1-1-3|-0-3-----3---1|
G|--------------|--------------|--------|--------------|--------------|--------|--------------|
D|--------------|--------------|--------|--------------|--------------|--------|--------------|
A|--------------|--------------|--------|--------------|--------------|--------|--------------|
E|--------------|--------------|--------|--------------|--------------|--------|--------------|

E|-1-1-1-1-1-0--|--------|-----1-0|-0------|-1-1-1-1-1-0--|-1-1-1-1-1-0--|--------|-----1-0|
B|-------------1|-1-1-1-3|-0-3----|---1----|-------------1|-------------1|-1-1-1-3|-0-3----|
G|--------------|--------|--------|-----2-0|--------------|--------------|--------|--------|
D|--------------|--------|--------|--------|--------------|--------------|--------|--------|
A|--------------|--------|--------|--------|--------------|--------------|--------|--------|
E|--------------|--------|--------|--------|--------------|--------------|--------|--------|

E|-0------|--------|-0------|-0------|----|
B|---1----|-1---0--|---1-3-3|---1-3-3|-0-1|
G|-----2-0|---2---0|--------|--------|----|
D|--------|--------|--------|--------|----|
A|--------|--------|--------|--------|----|
E|--------|--------|--------|--------|----|