Archives

Liens commerciaux

Marc lavoine J’ESPERE

Share Button
Imprimer cette tablature Imprimer cette tablature

Toutes les tablatures sont ici  http://guitarepourdebutant.fr/tablatures-faciles/


Marc Lavoine J’ESPERE (  Solo )

------13--------------13----------|------12--------------12----------|
--13------13--12/-13------13--13--|--12------12--10/-12------12--12--|
----------------------------------|----------------------------------|
----------------------------------|----------------------------------|
----------------------------------|----------------------------------|
----------------------------------|----------------------------------|

------12--------------12----------|------12--------------12----------|
--12------12--10/-12------12--12--|--12------12--10/-12------12--12--|
----------------------------------|----------------------------------|
----------------------------------|----------------------------------|
----------------------------------|----------------------------------|
----------------------------------|----------------------------------|

------13--------------13----------|------12--------------12----------|
--13------13--12/-13------13--13--|--12------12--10/-12------12--12--|
----------------------------------|----------------------------------|
----------------------------------|----------------------------------|
----------------------------------|----------------------------------|
----------------------------------|----------------------------------|

------12--------------12----------|--------------------||
--12------12--10/-12------12--12--|--13----------------||
----------------------------------|--------------------||
----------------------------------|--------------------||
----------------------------------|--------------------||
----------------------------------|--------------------||