Mathieu Chedid : Qui de nous deux

Share Button

 
Toutes les tablatures sont ici  http://guitarepourdebutant.fr/tablatures-faciles/

 Mathieu Chedid : Qui de nous deux

 

|--------------------------------------------|
|---------------11---------------------------|
|-12---10---12-----10---12---12---10---12--12|
|--------------------------------------------|
|--------------------------------------------|
|--------------------------------------------|

|--------------------------------------------|
|---------13--11-----------------------------|
|-12--10-----------10--12-------10--12-------|
|-------------------------10/8---------------|
|--------------------------------------------|
|--------------------------------------------|