Archives

Liens commerciaux

Les 14 sujets les plus lus

Michael Jackson : Human nature

Share Button
Imprimer cette tablature Imprimer cette tablature
e:-----------------------------------------------------
B:-------3--2------------------------3--2--------------
G:--3>4----------2-4-2----------3>4---------2-4-2-4--2-
D:---------------------3-2-----------------------------
A:-----------------------------------------------------
E:-----------------------------------------------------
e:------------------------------------------2----------
B:-------3--2------------------------3--5------3-------
G:--3>4----------2-4-2----------3>4--------------------
D:---------------------3-2-----------------------------
A:-----------------------------------------------------
E:-----------------------------------------------------

e:---------------2>0-----------------------------------
B:----------2--------3-2-3--------------2-----33353-0--
G:--3>4--------------------6-4--2-4-------------------- x2
D:-----------------------------------------------------
A:-----------------------------------------------------
E:-----------------------------------------------------