Archives

Liens commerciaux

Nirvana : Come As You Are

Share Button


Imprimer cette tablature Imprimer cette tablature
Début :
e----------------------------------------------------------------------------
b----------------------------------------------------------------------------
g----------------------------------------------------------------------------
d----------------------------------------------------------------------------
a-------------0----0-------------2----------2--------------------------------
e--0--0--1--2----2---2--2--1--0-----0--0------0--1---------------------------

e----------------------------------------------------------------------------
b----------------------------------------------------------------------------
g----------------------------------------------------------------------------
d----------------------------------------------------------------------------
a----0---0--------------2--------2-------------------------------------------
e--2----2---2--2--1--0-----0--0----0--1--------------------------------------

Couplet 9 fois
e----------------------------------------------------------------------------
b----------------------------------------------------------------------------
g----------------------------------------------------------------------------
d----------------------------------------------------------------------------
a-----0----0-------------2-------2-------------------------------------------
e--2----2----2--2--1--0----0--0-----0--1-------------------------------------
 et ensuite ,
e--------------------------------0--0--0--0----------------------------------
b--------------------------------0--0--0--0----------------------------------
g--------------------------------1--1--1--1----------------------------------
d----------------------------------------------------------------------------
a----0-----0-----------2-----------------------------------------------------
e--2----2-----2--1--0------0-------------------------------------------------

Refrain :
e--------0-------------------------------------------------------------------
b--------0---------------2-----2-----2-----2---------------------------------
g---------------------2--2--2--2--2--2--2--2--0------------------------------
d--4---------4--4-----2--2--2--2--2--2--2--2--0------------------------------
a--4---------4--4--0--0-----0-----0-----0-----0------------------------------
e--2---------2--2--0---------------------------------------------------------

Le jouer 3 fois puis,
e--------0-------------------------------------------------------------------
b--------0---------------2-----2---------------------------------------------
g---------------------2--2--2--2--2------------------------------------------
d--4---------4--4-----2--2--2--2--2------------------------------------------
a--4---------4--4--0--0-----0-----0------------------------------------------
e--2---------2--2--0--------------------0--0--1--2---------------------------

Toutes les tablatures sont ici  http://guitarepourdebutant.fr/tablatures-faciles/