One Direction Things Tabby

Share Button

 

One Direction  Things Tabby 

Toutes les tablatures sont ici  http://guitarepourdebutant.fr/tablatures-faciles/
 

e|-------------------------------------------------------------|
B|------3-----3-------3-----3-----------3-----3------3-----3---|
G|------0-----0-------0-----0-----------0-----0------0-----0---|
D|----0-----0-------0-----0-----------2-----2-------2----2-----|
A|-----------------------------0h2--3-----3-------3----3-------|
E|--3-----3-------3-----3--------------------------------------|

     ----------------------------------------------------------------|
     --------3-----3-------3-----3--------1--------3-------3-----3---|
     --------0-----0-------2-----2--------0------2-2-------0-----0---| x2
     ------2-----2-------0-----0--------2------0---------0-----0-----|
     ---------------------------------3------------------------------|
     ----0-----0-------2-----2-------------------------3-----3-------|

e|-------------------------------------------------------------|
B|------3-----3-------3-----3-----------3-----3------3-----3---|
G|------0-----0-------0-----0-----------0-----0------0-----0---|
D|----0-----0-------0-----0-----------2-----2-------2----2-----|
A|-----------------------------0h2--3-----3-------3----3-------|
E|--3-----3-------3-----3--------------------------------------|

     ----------------------------------------------------------------|
     --------3-----3-------3-----3--------1--------3-------3-----3---|
     --------0-----0-------2-----2--------0------2-2-------0-----0---| x2
     ------2-----2-------0-----0--------2------0---------0-----0-----|
     ---------------------------------3------------------------------|
     ----0-----0-------2-----2-------------------------3-----3-------|