Archives

Liens commerciaux

Les 14 sujets les plus lus

One Direction Truly Madly Deeply

Share Button

ONE DIRECTION – Truly Madly Deeply


Toutes les tablatures sont ici  http://guitarepourdebutant.fr/tablatures-faciles/

---0-0----0-0----0-0------0-0--------------|
---1-1----1-1----1-1------1-1--------------|
-------------------------------------------|
-------------------------------------------|
-3------2------0-------2-------------------|
-------------------------------------------|

---0-0----0-0----0-0------0-0--------------|
---1-1----1-1----1-1------1-1--------------|
-------------------------------------------|
-------------------------------------------|     2x
-3------2------0-------2-------------------|
-------------------------------------------|

---1-1-----1-1------1-1-----1-1------------|
---3-3-----3-3------3-3-----3-3------------|
-------------------------------------------|      2x
-0-----------------------------------------|
---------3-------2-------3-----------------|
-------------------------------------------|

---0-0----0-0----0-0------0-0--------------|
---1-1----1-1----1-1------1-1--------------|
-------------------------------------------|
-------------------------------------------|     2x
-3------2------0-------2-------------------|
-------------------------------------------|

---1-1-----1-1------1-1-----1-1------------|
---3-3-----3-3------3-3-----3-3------------|
-------------------------------------------|      2x
-0-----------------------------------------|
---------3-------2-------3-----------------|
-------------------------------------------|

---0-0----0-0----0-0------0-0--------------|
---1-1----1-1----1-1------1-1--------------|
-------------------------------------------|
-------------------------------------------|     4x
-3------2------0-------2-------------------|
-------------------------------------------|

---0-0----0-0----0-0------0-0--------------|
---1-1----1-1----1-1------1-1--------------|
-------------------------------------------|
-------------------------------------------|     2x
-3------2------0-------3-------------------|
-------------------------------------------|

-----0-------0-------0--------0--------------|
-----1-------1-------1--------1--------------|
---0---0---0---0---0---0----0---0------------|
---------------------------------------------|     2x
-3-------2-------0--------2------------------|
---------------------------------------------|

-----1-------1--------1--------1-----------|
-----3-------3--------3--------3-----------|
---0---0---0---0----0---0----0---0---------|      2x
-0-----------------------------------------|
---------3-------2-------3-----------------|
-------------------------------------------|

-----0-------0-------0--------0--------------|
-----1-------1-------1--------1--------------|
---0---0---0---0---0---0----0---0------------|
---------------------------------------------|     2x
-3-------2-------0--------2------------------|
---------------------------------------------|

-----1-------1--------1--------1-----------|
-----3-------3--------3--------3-----------|
---0---0---0---0----0---0----0---0---------|      2x
-0-----------------------------------------|
---------3-------2-------3-----------------|
-------------------------------------------|

-----0------0------0-------0---------------|
-----1------1------1-------1---------------|
---0---0---0--0--0---0---0---0-------------|
-------------------------------------------|     4x
-3------2------0-------2-------------------|
-------------------------------------------|

----0------0------0--------0---------------|
----1------1------1--------1---------------|
---0--0---0--0---0--0----0---0-------------|
-------------------------------------------|     2x
-3------2------0-------3-------------------|
-------------------------------------------|