Passenger – Let her go

Share Button

 

Passenger – Let her go

Toutes les tablatures sont ici  http://guitarepourdebutant.fr/tablatures-faciles/



E|-----0---------------------0-----|-----0---------------------0-----|--
B|--3-----3--1-------1----------1--|--3-----3--1-------1----------3--|--
G|--------------0h2-------2--------|--------------0h2-------2--------|--
D|---------------------------------|-------------------2-------2----0|--
A|-------------------3------3-----3|--------------0-------0----------|--
E|--------------1-------1------1---|--1-----3---------------------3--|--

E|-----0------------------------3p0--------0-----------------------|
B|--3-----3--1-------1-------1--------1h3--------------------------|
G|--------------0h2-------2----------------------------------------|  x2
D|--------0-------------------------------0------2-----2-----0-----|
A|-------------------3-----3--------3---------0-----0--------------|
E|--3-----------1-------1-------1-----3-------------------3-----3--|

 

Soyez le premier à commenter

Poster un Commentaire

Votre adresse de messagerie ne sera pas publiée.




Time limit is exhausted. Please reload CAPTCHA.