Patrick Bruel J’te l’dis quand même

Share Button

Tablature Patrick Bruel  : J’te l’dis quand même

Toutes les tablatures sont ici  http://guitarepourdebutant.fr/tablatures-faciles/

Imprimer cette tablature Imprimer cette tablature

 

--12--10----7--8----3--2—3--3-3--------------------------------------------
-------------------------1--1-0--------------------------------------------
-------------------------0--0-0--------------------------------------------
-------------------------0--0-0--------------------------------------------
-------------------------2--2-2--------------------------------------------
-------------------------3--3-3--3--2--------------------------------------

---------0----------------3-----------------3------3-3---------------------
----1-------1---1------3----3---3------1------1----1-0---------------------
------2-------2--2-------2----2---2------0------0--0-0---------------------
---------------------0-----------------------------0-0---------------------
--3------------------------------------------------2-2---------------------
-------------------------------------3-------------3-3---3--2--------------

Soyez le premier à commenter

Poster un Commentaire

Votre adresse de messagerie ne sera pas publiée.




Time limit is exhausted. Please reload CAPTCHA.