Archives

Liens commerciaux

Pirates des Caraïbes

Share Button

 

Tablature Theme cinéma : Pirates des Caraïbes

Toutes les tablatures sont ici  http://guitarepourdebutant.fr/tablatures-faciles/

E-------------------------------------  
B-------------0-1-1-1-3-0-0-----------    
G-----0-2-2-2---------------2-0-0-2---   X2 
D---2---------------------------------     
A-------------------------------------   
E-------------------------------------  

E--------------------0-1-1-0-----0-----------0----------------
B------------1-3-3-3---------3-3-----0-1-1-3------1--0--------
G----0-2-2-2-----------------------2----------2-2-----2-0-2---
D---2---------------------------------------------------------
A-------------------------------------------------------------
E-------------------------------------------------------------