Archives

Liens commerciaux

Serge Gainsbourg – La chanson de Prévert

Share Button

Serge Gainsbourg : La chanson de Prévert

Toutes les tablatures sont ici  http://guitarepourdebutant.fr/tablatures-faciles/

Capo 3eme cases

e-|--------------------------0-|---------------------|
B-|----0-------1-------3-----1-|--3----1----0--------|
G-|----0-------2-------4-------|--4----2----0----2---|
D-|----------------------------|-----------------4---|
A-|----------------------------|---------------------|
E-|----------------------------|---------------------|

e-|----------------------------------------------------|
B-|--0---1----3----------0---1---3---1---0-------------|
G-|--0---2----4----------0---2---4---2---0--2---0------|
D-|-----------------------------------------4-------4--|
A-|----------------------------------------------------|
E-|----------------------------------------------------|

e-|-------------|------------------------|
B-|--0----------|------------------------|
G-|--0---2---0--|--0---------------------|
D-|------4---2--|--2--2------0-----0-----|
A-|-------------|-----3------2--2--2--0--|
E-|-------------|---------------3-----2--|

e-|--------|------|-----------------|||
B-|--------|------|-----------------|||
G-|--------|-0----|-----------------|||
D-|-0------|-2--2-|--0-------0---1--|||          X3 !
A-|-2---2--|----3-|--2---2---2---2--|||
E-|-----3--|------|------3----------|||

e-|---------------|--0-----|---------------|-----|--0--||
B-|--0------------|--1--1--|--3--------3---|--4--|--0--||
G-|--0---2-----0--|-----0--|--4---4----4---|--2--|-----||
D-|------4-----2--|--------|------5--------|-----|-----||
A-|---------------|--------|---------------|-----|-----||
E-|---------------|--------|---------------|-----|-----||