Série tv – Trone de fer ( Game Of Thrones )

Share Button


Toutes les tablatures sont ici  http://guitarepourdebutant.fr/tablatures-faciles/

Tablature Série tv – Trone de fer ( Game Of Thrones )

----------------|---------------|------------------|-----------------|-----|
----------------|---------------|------------------|-----------------|-----|
----------------|---------------|------------------|-----------------|-----|
----------------|---------------|------------------|-----------------|-----|
--10------------|---------------|--6--8--10--------|-----------6--8--|--5--|
----------------|--8------------|------------------|--8--------------|-----|

-------|---------------|-----------------|---------------|-----------------|
-------|---------------|-----------------|---------------|-----------------|
-------|---------------|-----------------|---------------|-----------------|
-------|---------------|-----------------|---------------|-----------------|
--8----|---------------|--6--5--8--------|---------------|--6--5-----------|
-------|--6------------|-----------------|--6------------|--------8--------|

---------|--------------|------------------|-------------------|----------|
--8------|--------------|---------8--------|-------------------|----------|
---------|--------------|--8--10-----------|------------8--10--|--7-------|
---------|--10----------|------------------|--10---------------|----------|
---------|--------------|------------------|-------------------|----------|
---------|--------------|------------------|-------------------|----------|

---------|--------------|------------------|----------------|--------------|
---------|--------------|------------------|----------------|--------------|
--10-----|--------------|--8--7--10--------|----------------|-8--7---------|
---------|--8-----------|------------------|--8-------------|-------10-----|
---------|--------------|------------------|----------------|--------------|
---------|--------------|------------------|----------------|--------------|

---------|--------------|------------------|-------------------|----------|
--8------|--------------|---------8--------|-------------------|----------|
---------|--------------|--8--10-----------|------------8--10--|--7-------|
---------|--10----------|------------------|--10---------------|----------|
---------|--------------|------------------|-------------------|----------|
---------|--------------|------------------|-------------------|----------|

---------|--------------|------------------|----------------|--------------|
---------|--------------|------------------|----------------|--------------|
--10-----|--------------|--7------8--------|--7-------------|--------------|
---------|--8-----------|------------------|-----------8----|---10---------|
---------|--------------|------------------|----------------|--------------|
---------|--------------|------------------|----------------|--------------|

------|-----------------|---------------|----------------|---------------|
------|-----------------|---------------|----------------|---------------|
------|-----------------|---------------|----------------|---------------|
10----|-----------10----|--8------------|-----------8----|---------------|
------|-----------------|---------------|----------------|---------------|
------|-----------------|---------------|----------------|--8------------|

----------------|----------------|---------------|---------------|
----------------|----------------|---------------|---------------|
----------------|----------------|---------------|---------------|
----------------|----------------|---------------|---------------|
----------------|--10------------|---------------|---------------|
-----------8----|----------------|---------------|--4------------|

----------------|---------------|---------------|----------------|
----------------|---------------|---------------|----------------|
----------------|---------------|---------------|----------------|
----------------|---------------|---------------|----------------|
----------------|--6------------|--8------------|--10------------|
-----------4----|---------------|---------------|----------------|

------|-----------------|---------------|----------------|---------------|
------|-----------------|---------------|----------------|---------------|
------|-----------------|---------------|----------------|---------------|
10----|-----------------|--8------------|----------------|---------------|
------|-----------------|---------------|----------------|---------------|
------|-----------------|---------------|----------------|--8------------|

----------------|----------------|---------------|---------------|
----------------|----------------|---------------|---------------|
----------------|----------------|---------------|---------------|
----------------|----------------|---------------|---------------|
-----------10---|----------------|---------------|---------------|
----------------|----------------|---------------|--4------------|

----------------|---------------|---------------|----------------|
----------------|---------------|---------------|----------------|
----------------|---------------|---------------|----------------|
----------------|---------------|---------------|----------------|
----------------|--6------------|--5------------|----------------|
----------------|---------------|---------------|--8-------------|

E||------------------|------------------|------------------|----------------|
B||--1---------------|--1---------------|--1---------------|--1-------------|
G||---------------0--|---------------0--|---------------0--|-------------0--|
D||------------1-----|------------1-----|------------1-----|----------1-----|
A||-------3----------|-------3----------|-------3----------|-------3--------|
E||------------------|------------------|------------------|----------------|

E||------------------|------------------|------------------|----------------|
B||--1---------------|--1---------------|--1---------------|--1-------------|
G||---------------0--|---------------0--|---------------0--|-------------0--|
D||------------2-----|------------2-----|------------2-----|----------2-----|
A||-------3----------|-------3----------|-------3----------|-------3--------|
E||------------------|------------------|------------------|----------------|

------------------|------------------|------------------|------------------|
--1---------------|--1---------------|--1---------------|--1---------------|
---------------0--|---------------0--|---------------0--|---------------0--|
------------1-----|------------1-----|------------1-----|------------1-----|
-------3----------|-------3----------|-------3----------|-------3----------|
------------------|------------------|------------------|------------------|

------------------|------------------|------------------|------------------|
------------------|------------------|------------------|------------------|
--0---------------|--0---------------|--0---------------|--0---------------|
---------------0--|---------------0--|---------------0--|---------------0--|
------------1-----|------------1-----|------------1-----|------------1-----|
-------3----------|-------3----------|-------3----------|-------3----------|

------------------|------------------|------------------|------------------|
------------------|------------------|------------------|------------------|
--3---------------|--3---------------|--3---------------|--3---------------|
------------0--3--|------------0--3--|------------0--3--|------------0--3--|
-------1----------|-------1----------|-------1----------|-------1----------|
------------------|------------------|------------------|------------------|

------------------|------------------|------------------|------------------|
------------------|------------------|------------------|------------------|
------------------|------------------|------------------|------------------|
--3---------------|--3---------------|--3---------------|--3---------------|
---------------3--|---------------3--|---------------3--|---------------3--|
-------1----4-----|-------1----4-----|-------1----4-----|-------1----4-----|

 x 2

------------------|------------------|------------------|------------------|
--1---------------|--1---------------|--1---------------|--1---------------|
---------------0--|---------------0--|---------------0--|---------------0--|
------------1-----|------------1-----|------------1-----|------------1-----|
-------3----------|-------3----------|-------3----------|-------3----------|
------------------|------------------|------------------|------------------|

------------------|------------------|------------------|------------------|
------------------|------------------|------------------|------------------|
--0---------------|--0---------------|--0---------------|--0---------------|
---------------0--|---------------0--|---------------0--|---------------0--|
------------1-----|------------1-----|------------1-----|------------1-----|
-------3----------|-------3----------|-------3----------|-------3----------|

------------------|------------------|------------------|------------------|
------------------|------------------|------------------|------------------|
--3---------------|--3---------------|--3---------------|--3---------------|
------------0--3--|------------0--3--|------------0--3--|------------0--3--|
-------1----------|-------1----------|-------1----------|-------1----------|
------------------|------------------|------------------|------------------|

------------------|------------------|------------------|------------------|
--1---------------|--1---------------|--1---------------|--1---------------|
---------------0--|---------------0--|---------------0--|---------------0--|
------------1-----|------------1-----|------------1-----|------------1-----|
-------3----------|-------3----------|-------3----------|-------3----------|
------------------|------------------|------------------|------------------|

 x2

------------------|------------------|------------------|------------------|
------------------|------------------|--4---------------|--4---------------|
--1---------------|--1---------------|------------0--3--|------------0--3--|
---------------1--|---------------1--|-------1----------|-------1----------|
------------3-----|------------3-----|------------------|------------------|
-------4----------|-------4----------|------------------|------------------|

--1---------------|--1---------------|------------------|------------------|
---------------1--|---------------1--|--1---------------|--1---------------|
------------1-----|------------1-----|---------------0--|---------------0--|
-------3----------|-------3----------|------------1-----|------------1-----|
------------------|------------------|-------3----------|-------3----------|
------------------|------------------|------------------|------------------|

------------------|------------------|------------------|--1---------------|
------------------|------------------|--4---------------|---------------1--|
--1---------------|--1---------------|------------0--3--|------------1-----|
---------------1--|---------------1--|-------1----------|-------3----------|
------------3-----|------------3-----|------------------|------------------|
-------4----------|-------4----------|------------------|------------------|

------------------|------------------|------------------|------------------|
--1---------------|--1---------------|--1---------------|--1---------------|
---------------0--|---------------0--|---------------0--|---------------0--|
------------1-----|------------1-----|------------1-----|------------1-----|
-------3----------|-------3----------|-------3----------|-------3----------|
------------------|------------------|------------------|------------------|

 x2

--------------------------|--------------------------|
--(1)---------------------|--(1)---------------------|
---------------------(0)--|---------------------(0)--|
----------------(1)-------|----------------(1)-------|
---------(3)--------------|---------(3)--------------|
--------------------------|--------------------------|

 

Soyez le premier à commenter

Poster un Commentaire

Votre adresse de messagerie ne sera pas publiée.




Time limit is exhausted. Please reload CAPTCHA.