Archives

Liens commerciaux

Douce nuit

Share Button
Imprimer cette tablature Imprimer cette tablature

Toutes les tablatures sont ici http://guitarepourdebutant.fr/tablatures-faciles/

La Tablature de petit papa noël est ici : Tablature Petit papa noel 

 

e----------------
B----------------
G----------------
D--9--11--9------   (x2)
A-----------11---
E----------------

e-------------------------
B-------------------------
G-------------------------
D--16--16--13--14--14--9--
A-------------------------
E-------------------------

e------------------------------------------
B------------------------------------------
G------------------------------------------
D--11--11--14--13--11--9--11--9------------     (x2)
A--------------------------------11--------
E------------------------------------------

e-------------------------------
B-------------------------------
G-------------------------------
D--16--16--19--16--13--14--18---
A-------------------------------
E-------------------------------

e------------------------------
B------------------------------
G------------------------------
D--14--9------9--7-------------
A---------11--------9--7-------
E------------------------------