Survivor – Eye Of The Tiger

Share Button

 

Toutes les tablatures sont ici  http://guitarepourdebutant.fr/tablatures-faciles/

 

Tablature Survivor – Eye Of The Tiger

Intro

e|---------------------------------------------------------------------------|
B|---------------------------------------------------------------------------|
G|---------------------------------------------------------------------------|
D|---------------------------------------------------------------------------|
A|---------------------------------------------------------------------------|
E|-8--8--8--8--8--8--8--8--8--8--8--8--8--8--8--8--8--8--8--8--8--8--8--8--8-|

e|---------------------------------------------------------------------------|
B|---------------------------------------------------------------------------|
G|---------------------------------------------------------------------------|
D|--10--10--8---10--10--8---10--10--8---6------------------------------------|
A|--10--10--8---10--10--8---10--10--8---6------------------------------------|
E|--8---8---6---8---8---6---8---8---6---4------------------------------------|

e|---------------------------------------------------------------------------|
B|---------------------------------------------------------------------------|
G|---------------------------------------------------------------------------|
D|--10--10--8---10--10--8---10--10--8---6------------------------------------|
A|--10--10--8---10--10--8---10--10--8---6------------------------------------|
E|--8---8---6---8---8---6---8---8---6---4------------------------------------|

e|---------------------------------------------------------------------------|
B|---------------------------------------------------------------------------|
G|--9---9---7---9---9---7---9---9---7---5------------------------------------|
D|--10--10--8---10--10--8---10--10--8---6------------------------------------|
A|--10--10--8---10--10--8---10--10--8---6------------------------------------|
E|--8---8---6---8---8---6---8---8---6---4------------------------------------|

e|---------------------------------------------------------------------------|
B|---------------------------------------------------------------------------|
G|--9---9---7---9---9---7---9---9---7---5------------------------------------|
D|--10--10--8---10--10--8---10--10--8---6------------------------------------|
A|--10--10--8---10--10--8---10--10--8---6------------------------------------|
E|--8---8---6---8---8---6---8---8---6---4------------------------------------|

e|-------|
B|-------|
G|--9----|
D|--10---|
A|--10---|
E|--8----|

e|---------------------------------------------------------------------------|
G|---------------------------------------------------------------------------|
B|--2-----9-----7------------------------------------------------------------|
D|--3-----10----8------------------------------------------------------------|
A|--3-----10----8------------------------------------------------------------|
E|--1-----8-----6------------------------------------------------------------|

e|---------------------------------------------------------------------------|
G|---------------------------------------------------------------------------|
B|--2-----9-----7------------------------------------------------------------|
D|--3-----10----8------------------------------------------------------------|
A|--3-----10----8------------------------------------------------------------|
E|--1-----8-----6------------------------------------------------------------|

e|---------------------------------------------------------------------------|
G|---------------------------------------------------------------------------|
B|--2-----9-----7------------------------------------------------------------|
D|--3-----10----8------------------------------------------------------------|
A|--3-----10----8------------------------------------------------------------|
E|--1-----8-----6------------------------------------------------------------|

e|---------------------------------------------------------------------------|
B|---------------------------------------------------------------------------|
G|---------------------------------------------------------------------------|
D|---------------------------------------------------------------------------|
A|--3--2--3--5--3--5---7-----------------------------------------------------|
E|---------------------------------------------------------------------------|

e|---------------------------------------------------------------------------|
B|--8--6--7------------------------------------------------------------------|
G|---------------------------------------------------------------------------|
D|---------------------------------------------------------------------------|
A|---------------------------------------------------------------------------|
E|---------------------------------------------------------------------------|

e|---------------------------------------------------------------------------|
B|--8--6--7------------------------------------------------------------------|
G|---------------------------------------------------------------------------|
D|---------------------------------------------------------------------------|
A|---------------------------------------------------------------------------|
E|---------------------------------------------------------------------------|

e|---------------------------------------------------------------------------|
G|---------------------------------------------------------------------------|
B|--2-----9-----7------------------------------------------------------------|
D|--3-----10----8------------------------------------------------------------|
A|--3-----10----8------------------------------------------------------------|
E|--1-----8-----6------------------------------------------------------------|

e|---------------------------------------------------------------------------|
G|---------------------------------------------------------------------------|
B|--2-----9-----7------------------------------------------------------------|
D|--3-----10----8------------------------------------------------------------|
A|--3-----10----8------------------------------------------------------------|
E|--1-----8-----6------------------------------------------------------------|

e|---------------------------------------------------------------------------|
G|---------------------------------------------------------------------------|
B|--2-----9-----7------------------------------------------------------------|
D|--3-----10----8------------------------------------------------------------|
A|--3-----10----8------------------------------------------------------------|
E|--1-----8-----6------------------------------------------------------------|

e|---------------------------------------------------------------------------|
B|---------------------------------------------------------------------------|
G|---------------------------------------------------------------------------|
D|---------------------------------------------------------------------------|
A|--3--2--3--5--3--5---7-----------------------------------------------------|
E|---------------------------------------------------------------------------|

e|---------------------------------------------------------------------------|
G|---------------------------------------------------------------------------|
B|--2-----9-----7------------------------------------------------------------|
D|--3-----10----8------------------------------------------------------------|
A|--3-----10----8------------------------------------------------------------|
E|--1-----8-----6------------------------------------------------------------|

e|---------------------------------------------------------------------------|
G|---------------------------------------------------------------------------|
B|--2-----9-----7------------------------------------------------------------|
D|--3-----10----8------------------------------------------------------------|
A|--3-----10----8------------------------------------------------------------|
E|--1-----8-----6------------------------------------------------------------|

e|---------------------------------------------------------------------------|
G|---------------------------------------------------------------------------|
B|--2-----9-----7------------------------------------------------------------|
D|--3-----10----8------------------------------------------------------------|
A|--3-----10----8------------------------------------------------------------|
E|--1-----8-----6------------------------------------------------------------|

e|---------------------------------------------------------------------------|
B|---------------------------------------------------------------------------|
G|---------------------------------------------------------------------------|
D|---------------------------------------------------------------------------|
A|--3--2--3--5--3--5---7-----------------------------------------------------|
E|---------------------------------------------------------------------------|

e|---------------------------------------------------------------------------|
B|---------------------------------------------------------------------------|
G|---------------------------------------------------------------------------|
D|--10--10--8---10--10--8---10--10--8---6------------------------------------|
A|--10--10--8---10--10--8---10--10--8---6------------------------------------|
E|--8---8---6---8---8---6---8---8---6---4------------------------------------|

e|---------------------------------------------------------------------------|
B|---------------------------------------------------------------------------|
G|---------------------------------------------------------------------------|
D|--10--10--8---10--10--8---10--10--8---6------------------------------------|
A|--10--10--8---10--10--8---10--10--8---6------------------------------------|
E|--8---8---6---8---8---6---8---8---6---4------------------------------------|

e|---------------------------------------------------------------------------|
B|---------------------------------------------------------------------------|
G|--9---9---7---9---9---7---9---9---7---5------------------------------------|
D|--10--10--8---10--10--8---10--10--8---6------------------------------------|
A|--10--10--8---10--10--8---10--10--8---6------------------------------------|
E|--8---8---6---8---8---6---8---8---6---4------------------------------------|

e|---------------------------------------------------------------------------|
B|---------------------------------------------------------------------------|
G|--9---9---7---9---9---7---9---9---7---5------------------------------------|
D|--10--10--8---10--10--8---10--10--8---6------------------------------------|
A|--10--10--8---10--10--8---10--10--8---6------------------------------------|
E|--8---8---6---8---8---6---8---8---6---4------------------------------------|

 

Soyez le premier à commenter

Poster un Commentaire

Votre adresse de messagerie ne sera pas publiée.




Time limit is exhausted. Please reload CAPTCHA.