Tablature générique : Le bon, la brute et le truand

Share Button
Imprimer cette tablature Imprimer cette tablature

Toutes les tablatures sont ici  http://guitarepourdebutant.fr/tablatures-faciles/

 

Tablature générique : Le bon, la brute et le truand

Ennio Morricone

 

e|----10----10-----------------|--------------------------| 
B|-10----10----10--------------|--------------------------| 
G|------------------------10---|-12-----------------------| 
D|-----------------------------|-------12-----------------| 
A|-----------------------------|--------------------------| 
E|-----------------------------|--------------------------|  

e|----10----10-----------------|--------------------------| 
B|-10----10----10--------------|-------13-----------------| 
G|------------------------10---|-12-----------------------| 
D|-----------------------------|--------------------------| 
A|-----------------------------|--------------------------| 
E|-----------------------------|--------------------------|  

e|----10----10-----------------|--------------------------| 
B|-10----10--------------------|--------------------------| 
G|------------------------10---|-9------------------------| 
D|-----------------------------|---12-10------------------| 
A|-----------------------------|--------------------------| 
E|-----------------------------|--------------------------|  

e|----10----10-----------------|--------------------------|| 
B|-10----10----10--------------|--------------------------|| 
G|-----------------------12----|--------------------------|| 
D|--------------------------12-|-12-----------------------|| 
A|-----------------------------|--------------------------|| 
E|-----------------------------|--------------------------||   

e|---|-------------------------|--------------------------| 
B|---|-------1-----------------|-------1------------------| 
G|---|---2---------------------|---2----------------------| 
D|---|-0---3-------------------|-0---3--------------------| 
A|-0-|-----------------------0-|------------------------0-| 
E|---|-------------------------|--------------------------|  

e|-----------0-----|-3--------------|-5-------------------| 
B|-------1-------1-|----------------|---------------------| 
G|---2-----2-------|----------------|---------------------| 
D|-0---3-----------|----------------|---------------------| 
A|-----------------|----------------|---------------------| 
E|-----------------|----------------|---------------------|  

e|-------------3-------------|-------------3--------------| 
B|-6-5-3-------------------3-|-6-5-3--------------------3-| 
G|---------------------------|----------------------------| 
D|---------------------------|----------------------------| 
A|---------------------------|----------------------------| 
E|---------------------------|----------------------------|  

e|-------------3-------------|-------------3--------------| 
B|-6-5-3-------------------3-|-6-5-3--------------------3-| 
G|---------------------------|----------------------------|
D|---------------------------|----------------------------| 
A|---------------------------|----------------------------| 
E|---------------------------|----------------------------|  

e|---------3-------------3----|-------------------------------| 
B|-6-5-3-------3-6-5-3------3-|-6-5-3-6-5-------3-------------| 
G|----------------------------|-------------5-----5-4-5---2---| 
D|----------------------------|-------------------------------| 
A|----------------------------|-------------------------------| 
E|----------------------------|-------------------------------|  

e|---------------------------------|------------|-------------| 
B|---------------------------------|------------|-------------| 
G|-4-2-0-4-2-------0---------------|------------|-------------| 
D|-------------3-----3-2---3---0---|------------|-------------| 
A|---------------------------------|-3----------|-------------| 
E|---------------------------------|------------|-------------|  

e|--------------|---------------------|----------------------|| 
B|--------------|---------------------|----------------------|| 
G|--------------|---------------------|----------------------|| 
D|--------------|---------------------|----------------------|| 
A|-4------------|---------------------|-5--------------------|| 
E|--------------|---------------------|----------------------||   

e|----10----10-----------------|--------------------------| 
B|-10----10----10--------------|--------------------------| 
G|------------------------10---|-12-----------------------| 
D|-----------------------------|-------12-----------------| 
A|-----------------------------|--------------------------| 
E|-----------------------------|--------------------------|  

e|----10----10-----------------|--------------------------| 
B|-10----10----10--------------|-------13-----------------| 
G|------------------------10---|-12-----------------------| 
D|-----------------------------|--------------------------| 
A|-----------------------------|--------------------------| 
E|-----------------------------|--------------------------|  

e|----10----10-----------------|--------------------------| 
B|-10----10--------------------|--------------------------| 
G|------------------------10---|-9------------------------| 
D|-----------------------------|---12-10------------------| 
A|-----------------------------|--------------------------| 
E|-----------------------------|--------------------------|  

e|----10----10-----------------|--------------------------|| 
B|-10----10----10--------------|--------------------------|| 
G|-----------------------12----|--------------------------|| 
D|--------------------------12-|-12-----------0-3-3-0-0-3-|| 
A|-----------------------------|--------------------------|| 
E|-----------------------------|--------------------------||  

e|---------------------------|-------------------------| 
B|---------------------------|-3-------------3-3-----3-| 
G|-0-------------0-4-4-0-0-4-|-------------3-----3-3---| 
D|---0-----------------------|-------------------------| 
A|---------------------------|-------------------------| 
E|---------------------------|-------------------------|  

e|---------------------------|-------------------------| 
B|-6---------------6-6-----6-|-8-------------8-8-----8-| 

G|---------------5-----5-5---|-------------9-----9-9---| 
D|---------------------------|-------------------------| 
A|---------------------------|-------------------------| 
E|---------------------------|-------------------------|  

e|-------------------------------|----------------------|| 
B|-10----------10-13-13-10-10-13-|-15-------------------|| 
G|-------------------------------|----------------------|| 
D|-------------------------------|----------------------|| 
A|-------------------------------|----------------------|| 
E|-------------------------------|----------------------||

 

Soyez le premier à commenter

Poster un Commentaire

Votre adresse de messagerie ne sera pas publiée.




Time limit is exhausted. Please reload CAPTCHA.