Tablature inspecteur gadget ( série tv )

Share Button

Tablature inspecteur gadget ( série tv )

Imprimer cette tablature Imprimer cette tablature

 

Toutes les tablatures sont ici  http://guitarepourdebutant.fr/tablatures-faciles/

 

-----------------------------------------
-----------------------------------------
-----------------------------------------
----------0--2----1---0------------------
--0--2--3------3----2---3----------------
-----------------------------------------

-----------------------------------------
-----------------------------------------
-----------------2--1--------------------
----------0--2---------------------------
--0--2--3--------------------------------
-----------------------------------------

-----------------------------------------
-----------------------------------------
--2--1--0-----------2--------------------
-----------4--3---2----------------------
-----------------------------------------
-----------------------------------------

-----------------------------------------
-----------------------------------------
-----------------------------------------
----------0--2----1---0------------------
--0--2--3------3----2---3----------------
-----------------------------------------

-----------------------------------------
-----------------------------------------
-----------------2--1--------------------
----------0--2---------------------------
--0--2--3--------------------------------
-----------------------------------------

-----------------------------------------
-----------------------------------------
-----------------------------------------
----------0--2----1---0------------------
--0--2--3------3----2---3----------------
-----------------------------------------

Soyez le premier à commenter

Poster un Commentaire

Votre adresse de messagerie ne sera pas publiée.




Time limit is exhausted. Please reload CAPTCHA.