Archives

Liens commerciaux

Tablature Serie tv Agence tout risques

Share Button
Tablature : Serie tv Agence tout risques
Imprimer cette tablature Imprimer cette tablature

Toutes les tablatures sont ici http://guitarepourdebutant.fr/tablatures-faciles/

 

--------------------------------------------------------------|
--------------------------------------------------------------|
--------------------------------------------------------------|
-------5-------------5-----------------5----------------------|
-----5-----5-------5---8-7-5---5-----5-----5---8-7---8-7------|
-7-8-----8---3-7-8-----------8---7-8-----8---3-----8-----8-10-|

-----------------------------------------|
-----------------------------------------|
-----------------------------------------|
-----------------7-5---------------------|
-7-7-5-7-5-7-5-5-5-3-7-7-5-7-5-3-3-3-5-5-|
-5-5-3-5-3-5-3-3-----5-5-3-5-3-1-1-1-3-3-|