Archives

Liens commerciaux

Les 14 sujets les plus lus

Super Mario Bros

Share Button


Une tablature sympathique du jeu Super Mario Bros 🙂
A lire également : Une Guitare Super Mario

Les autres tablatures sont ici http://guitarepourdebutant.fr/tablatures-faciles/

Imprimer cette tablature Imprimer cette tablature

 

e|------------3---------------------------5-----------------|
B|--5-5-5---5-------------------------5-8---6-8-5-----------|
G|--------5---------5-----------------------------7-6-5-----|
D|---------------5----5----7-9-8-7--5-----------------------|
A|----------------------7-----------------------------------|
E|----------------------------------------------------------|

e|-----------------------------------8-8-8--------------------|
B|--8-7-6---5--------------8-7-6---5--------------------------|
G|--------8-------5---5/7--------8----------------------------|
D|------------6/7---7-----------------------------------------|
A|------------------------------------------------------------|
E|------------------------------------------------------------|

e|------------------------------------------------------------|
B|--8-7-6---5-------------------------------------------------|
G|--------8-------5---5/7---7/8-7-5---------------------------|
D|------------6/7---7-----------------------------------------|
A|------------------------------------------------------------|
E|------------------------------------------------------------|

e|------------------------------------------------------------|
B|-------------5------------------5---------------------------|
G|---5-5-5-5-7---5------5-5-5-5-7-----------------------------|
D|-----------------7-5--------------5-------------------------|
A|------------------------------------------------------------|
E|------------------------------------------------------------|

e|-------------------------------3-----------------------------|
B|------------5--------5-5-5---5-------------------------------|
G|--5-5-5-5-7---5------------5---------------------------------|
D|----------------7-5------------------------------------------|
A|-------------------------------------------------------------|
E|-------------------------------------------------------------|

e|-------------------------------------------------------------|
B|--5---------6-6-------10-10-10-8-----------------------------|
G|----5----------------------------10-9------------------------|
D|------5-6-7-----7---9-----------------10-7-5-----------------|
A|-------------------------------------------------------------|
E|-------------------------------------------------------------|

e|-------------------------------------------------------------|
B|--5---------6-6----------------------------------------------|
G|----5-----------------10-10-10-9-7-5-------------------------|
D|------5-6-7-----7---9----------------------------------------|
A|-------------------------------------------------------------|
E|-------------------------------------------------------------|