Archives

Liens commerciaux

Les 14 sujets les plus lus

Tablature thème dessin animé CAPITAINE FLAM

Share Button

 

Tablature thème dessin animé CAPITAINE FLAM

Toutes les tablatures sont ici  http://guitarepourdebutant.fr/tablatures-faciles/

  
|--------------------|----------------------|--------------------|
|--------------------|----------------------|--------------------|
|--------------------|--5------4------------|--4-----------------|
|---------------5----|--------------7----5--|---------------7----|
|--5-----------------|----------------------|--------------------|
|--------------------|----------------------|--------------------|

|----------------------|--------------------|----------------------|
|----------------------|--------------------|----------------------|
|--5----4--------------|---------------4----|----------------------|
|------------7----5----|--------------------|--7----5----4----5----|
|----------------------|--2-----------------|----------------------|
|----------------------|--------------------|----------------------|

|-------------------|------------------|--------------------|
|-------------------|------------------|---------------5----|
|-------------------|------------------|--------------------|
|--7----------------|------------------|--5-----------------|
|-------------------|------------------|--------------------|
|-------------------|------------------|--------------------|

|----------------------|--------------------|----------------------|
|----------------------|--------------------|----------------------|
|--7----5----4---------|--4------------7----|--5----4--------------|
|-----------------7----|--------------------|------------7----5----|
|----------------------|--------------------|----------------------|
|----------------------|--------------------|----------------------|

|--------------------|----------------------|-------------------|
|--------------------|----------------------|-------------------|
|---------------4----|----------------------|--4----------------|
|--7-----------------|--7----2----4----5----|-------------------|
|--------------------|----------------------|-------------------|
|--------------------|----------------------|-------------------|

|-------------------|-------------------|
|-------------------|-------------------|
|--2----------------|-------------------|
|-------------------|--5----------------|
|-------------------|-------------------|
|-------------------|-------------------|