Archives

Liens commerciaux

The A Team – Ed Sheeran

Share Button

 

The A Team – Ed Sheeran

 

Toutes les tablatures sont ici  http://guitarepourdebutant.fr/tablatures-faciles/

 

e|------------------------------------------------------------------------|
B|-----14---------------------------------10-------10h12--10--------------|
G|-------------------------(b9)-------6--9	------11------------11----|
D|----------------11p(b9)-7-----------------------------------------------|
A|------------------------------------------------------------------------|
E|------------------------------------------------------------------------|

Palm Mute                              Mute off
e|----------------------------------------------2--4--5---let ring-----------|
B|----------------------------------------2--5-------------------------------|
G|-----------2--4--2--4--2--4------------------------------------------------|
D|------2h4------------------------------------------------------------------|
A|---------------------------------------------------------------------------|
E|---------------------------------------------------------------------------|