The Cure – Boys don’t cry

Share Button

tablature facile The Cure – Boys don’t cry

Imprimer cette tablature Imprimer cette tablature

Toutes les tablatures sont ici  http://guitarepourdebutant.fr/tablatures-faciles/

 

Intro:
e|-----------------------------------------|
B|------2------3------5------7----7--5--3--|
G|------2------4------6------7----7--6--4--|
D|------2------4------6------7----7--6--4--|
A|------0------2------4------5----5--4--2--|
E|-----------------------------------------|

e|---------------------------------2-4-5---2------|
B|--2---2-3-5---2---2-3-5---5---5------------5-3--|
G|------------------------------------------------|
D|------------------------------------------------|
A|------------------------------------------------|
E|------------------------------------------------|

e|---------------------------------2-4-5---2---------|
B|--2---2-3-5---2---2-3-5---5---5------------5-3--2--|
G|---------------------------------------------------|
D|---------------------------------------------------|
A|---------------------------------------------------|
E|---------------------------------------------------|

e|----------------------------------------------------|
B|------2--2-22---3--3-33---5--5-55---7--77-7--5--3---|
G|------2--2-22---4--4-44---6--6-66---7--77-7--6--4---|  Play 2X
D|------2--2-22---4--4-44---6--6-66---7--77-7--6--4---|
A|------0--0-00---2--2-22---4--4-44---5--55-5--4--2---|
E|----------------------------------------------------|

Soyez le premier à commenter

Poster un Commentaire

Votre adresse de messagerie ne sera pas publiée.




Time limit is exhausted. Please reload CAPTCHA.