Archives

Liens commerciaux

The Shadows apache

Share Button

The Shadows apache

Toutes les tablatures sont ici  http://guitarepourdebutant.fr/tablatures-faciles/


e----------------------------5--3---
B--------1--3^------------1---------
G-----2----------------2------------
D----------------------------------- 2fois
A-----------------------------------
E-----------------------------------

  Am            D         Am
e--------------------------
B--------------------------
G------2-----2-------------
D---2-----2-----4--2--0--2-  2fois
A--------------------------
E--------------------------

  D           G        D
e------------------------
B----2-----3-------------
G-2-----2-----4--2--0--2-
D------------------------
A------------------------
E------------------------

e------------------------
B------------------------
G-----2-----2------------
D--2-----2-----4--2--2--- 
A------------------------
E------------------------

e----------------------------------
B----------------------------------
G---------------------------------- 
D---3333---3333---3333---3333------
A-3------3------3------3------2-0*-
E----------------------------------

e-----------------------0-----------
B-------1--0---0--1--3-----3--1-----
G----2----------------------------2-
D-3---------------------------------
A-----------------------------------
E-----------------------------------

e---------------------------------
B-------1--0---0--1--3------------
G-----2------------------0--------
D-3-------------------------------
A---------------------------------
E---------------------------------

e-----3-------6---
B-2/5---5-5/8---8-
G-----------------
D-----------------
A-----------------
E-----------------

e-----------------------0-----------
B-------1--0---0--1--3-----3--1-----
G----2----------------------------2-
D-3---------------------------------
A-----------------------------------
E-----------------------------------

e----------------------------------
B----------------------------------
G---------------------------------- 
D---3333---3333---3333---3333------
A-3------3------3------3------2-0*-
E----------------------------------

e-----------------------------------
B-----------------------------------
G----------------------------------- 
D---77777-----7----------------7----
A-7-------7-7---7-99999--7--5-----7-
E-----------------------------------

e-----------------------------------
B-----------------------------------
G---77777-----7----------------7----
D-7-------7-7---7-99999--7--5-----7-
A-----------------------------------
E-----------------------------------

e-----------------------------------
B-----------------------------------
G----------------------------------- Jouer en mutant les cordes
D---77777-----7----------7--5--7----
A-7-------7-7---7-99999-----------7-
E-----------------------------------

e-----0---
B----1----
G---2-----
D--2------
A-0-------
E---------

e-----------------------0-----------
B-------1--0---0--1--3-----3--1-----
G----2----------------------------2-
D-3---------------------------------
A-----------------------------------
E-----------------------------------

e------------------------------------------
B-------1--0---0--1--3---------------------
G-----2------------------0----0000-1-0-1-0-
D-3----------------------------------------
A------------------------------------------
E------------------------------------------

e-----------------------0-----------
B-------1--0---0--1--3-----3--1-----
G----2----------------------------2-
D-3---------------------------------
A-----------------------------------
E-----------------------------------
  F                           Am
e----------------------------------
B----------------------------------
G---------------------------------- 
D---3333---3333---3333---3333------
A-3------3------3------3------2-0--
E----------------------------------

e-------------------------------
B-------------------------------
G-------------------------------
D----------------------333333-2-
A--------000000-333333----------
E-111111------------------------

e----------------------------5--3---
B--------1--3^------------1---------
G-----2----------------2------------
D----------------------------------- 
A-----------------------------------
E-----------------------------------

e------------------------------------
B--------1--3^------------1-----1----
G-----2----------------2-----2-----2-
D------------------------------------
A------------------------------------
E------------------------------------

e----------------------5--3--0----------------
B--------1--3^------------------3--1--0-------
G-----2----------------------------------0--2-
D---------------------------------------------
A---------------------------------------------
E---------------------------------------------