Thème cinéma : James Bond 007

Share Button


 

Thème cinéma :  James Bond 007

Imprimer cette tablature Imprimer cette tablature
E||---------------------|----------------------------------------------|
B||---------------------|----------------------------------------------|
G||---------------------|----------------------------------------------|
D||---------------------|----------------------------------------------|
A||---2--------3--------|--4--------3----------------------------------|
E||---------------------|-----------------------0---2-2--2----0--0--0--|

-------------------------|-------------------------|-------------------------|
-------------------------|-------------------------|-------------------------|
-------------------------|-------------------------|-------------------------|
-------------------------|-------------------------|-------------------------|
-------------------------|-------------------------|-------------------------|
--0---3-3--3----2--2--2--|--0---2-2--2----0--0--0--|--0---3-3--3----2--2--2--|

-------------------------|-------------------------|----------------------|
-------------------------|-------------------------|----------------------|
-------------------------|-------------------------|----------------------|
-------------------------|-------------------------|--1--0----------------|
-------------------------|-------------------------|----------------2--0--|
--0---2-2--2----0--0--0--|--0---3-3--3----2--1--0--|----------------------|

-------------------------|------------------|
-------------------------|------------------|
-------------------------|------------------|
-------------------------|------------------|
--2------2--------3------|--4--------3------|
-------------------------|------------------|

------------------------|--------------------|-----------------------|
------------------------|--------------------|-----------------------|
-----------4--3---------|--------------------|-----------------------|
---2--5--------------5--|--4--5--------------|--5----4---------2-----|
------------------------|--------------------|--------------2-----4--|
------------------------|--------------------|-----------------------|

------------------|-----------------------|--------------------|
------------------|-----------------------|--------------------|
------------------|----------4--3---------|--------------------|
------------------|--2--5--------------5--|--4--5--------------|
------------------|-----------------------|--------------------|
------------------|-----------------------|--------------------|

-----------------------|-------------------------|
-----------------------|-------------------------|
-----------------------|-------------------------|
--5----4---------1--2--|---2--2----2--4--2--4----|
--------------2--------|-------------------------|
-----------------------|-------------------------|

------------------------------------------------|-------------------|
------------------------------------------------|-------------------|
---------------------------9-9----------9-9-----|-------------------|
--5--5----5--4--2--4-------9-9-----9----9-9-----|--9----------------|
---------------------------7-7-----9----7-7-----|--9----------------|
-----------------------------------7------------|--7----------------|

--------------------|--------------------|-------------------------|
--------------------|--------------------|-------------------------|
--------------------|--------------------|-------------------------|
--------------------|--------------------|-------------------------|
--2--------3--------|--4--------3--------|-------------------------|
--------------------|--------------------|--0---2-2--2----0--0--0--|

-------------------------|-------------------------|-------------------------|
-------------------------|-------------------------|-------------------------|
-------------------------|-------------------------|-------------------------|
-------------------------|-------------------------|-------------------------|
-------------------------|-------------------------|-------------------------|
--0---3-3--3----2--2--2--|--0---2-2--2----0--0--0--|--0---3-3--3----2--2--2--|

-------------------------|-------------------------|----------------------|
-------------------------|-------------------------|----------------------|
-------------------------|-------------------------|----------------------|
-------------------------|-------------------------|--1--0----------------|
-------------------------|-------------------------|----------------2--0--|
--0---2-2--2----0--0--0--|--0---3-3--3----2--1--0--|----------------------|

-------------------|------------------------|-----------------------|
-------------------|------------------------|-----------------------|
-------------------|------------------------|--------------------3--|
-------------------|------------------------|----4--3-------0-------|
--2----------------|----------1--0-------2--|------------3----------|
-------------------|--0--3------------3-----|-----------------------|

-----------------------|--2----------------|
---------------4--3----|--2----------------|
--2-------2------------|--2----------------|
-------3---------------|--1----------------|
-----------------------|--2----------------|
-----------------------|-------------------|

Soyez le premier à commenter

Poster un Commentaire

Votre adresse de messagerie ne sera pas publiée.




Time limit is exhausted. Please reload CAPTCHA.