Theme Pokemon

Share Button

Theme Pokemon

Toutes les tablatures sont ici  http://guitarepourdebutant.fr/tablatures-faciles/

Imprimer cette tablature Imprimer cette tablature

E|------------------17b19-17-15--|
B|-------------------------------|
G|------------15-14--------------|
D|-/15-13-15---------------------|
A|-------------------------------|
E|-------------------------------|

E|-----------------------------------------------|
B|-----------------------------------------------|
G|-17b1917-15-17----15-17------------------------|
D|---------------17-------17------------------17-|
A|--------------------------------15-15-15-------|
E|-----------------------------------------18----|

E|----------------------------------------|
B|-------13h15-16--16-16--16b18r16-15-----|
G|-12h15-----------------------------15---|
D|-------------------------------------15-|
A|----------------------------------------|
E|----------------------------------------|

E|-------------------------------------|
B|---------15h18-17----------18-17-----|
G|-/15-17-------------15-17--------17--|
D|-------------------------------------|
A|-------------------------------------|
E|-------------------------------------|

E|--------15h17---20b22-20b22-20b22----|
B|-15h17-------------------------------|
G|-------------------------------------|
D|-------------------------------------|
A|-------------------------------------|
E|-------------------------------------|

Soyez le premier à commenter

Poster un Commentaire

Votre adresse de messagerie ne sera pas publiée.




Time limit is exhausted. Please reload CAPTCHA.