Weezer : Island in the Sun ( solo )

Share Button
Imprimer cette tablature Imprimer cette tablature

Toutes les tablatures sont ici  http://guitarepourdebutant.fr/tablatures-faciles/

Weezer :    Island in the Sun  ( solo )

e-----------------------------------
B-----------------------------------
G ---7-9-7---5-4-5-4---2-4-2---------
D-----------------------------5-4-5-5
A------------------------------------
E------------------------------------

e------------------------------------
B------------------------------------
G ---7-9-7---5-4-5-4---2-4-2---------
D-----------------------------5-4-5-5
A------------------------------------
E------------------------------------