15 Fathoms, Counting – Bring Me The Horizon

Share Button

Bring Me The Horizon :  15 Fathoms, Counting

Toutes les tablatures sont ici  http://guitarepourdebutant.fr/tablatures-faciles/


 

/------------------|----------------------------\||
||--------------0--|-------------0---------------||
||.4------3-----3--|-------------4------------.--||
||.4------------4--|-------4-----4------------.--||
||-----2-----2-----|----2-----2------------------||
\---4--------------|-0---------------------------||

/-----------------------|-------0---------------|---------------------------------------------\|||
||-----------0--0-----2-|----2-----2--------0---|----------------------------------------------|||
||.-------4--------4----|----------------3-----3|----------11--11-----11---11---11--11--11--.--|||
||.---------------------|-------------1---------|----9----------9------9----9----9---9---9--.--|||
||-----2----------------|-----------------------|-------9-------9------9----9----0---0---0-----|||
\---0-------------------|-2---------------------|-0-------------0------0----0----0---0---0-----|||

/-----------------------7---7---7---7---7--7--|----------------------------------------------------------\|||
||----------------------4---4---4---4---4--4--|-----------------------------------------------------------|||
||.-4-6-6-6-8-4---------4---4---4---4---4--4--|-4-6-6-6-8-4---------11-11-11-11--11-11-11-11-11-11-11--.--|||
||.-x-x-x-x-x-x---------6---6---6---6---6--6--|-x-x-x-x-x-x----------9--9--8--9---9--9--9--9--9--9--9--.--|||
||--2-4-4-4-6-2-------------------------------|-2-4-4-4-6-2----------9--9--9--9---9--9--9--9--9--9--9-----|||
\----------------4---4------------------------|--------------0---0----------------0--0--0--0--0--0--0-----|||

/----------------------------2--|--------------------------2----\||
||--------2--------2---------2--|-------2--------2---------2-----||
||.----4--------4------------6--|----4--------4------------6--.--||
||.----------1---------------4--|----------1---------------4--.--||
||------------------------------|--------------------------------||
\---0-----------------2---2-----|-0-----------------2---2--------||

	

Soyez le premier à commenter

Poster un Commentaire

Votre adresse de messagerie ne sera pas publiée.




Time limit is exhausted. Please reload CAPTCHA.